Early November - Sunday Drive Chords & Tabs

 

Sunday Drive Chords & Tabs

Early November Chords & Tabs

Version: 4 Type: Tab 0 ratings
1 star 2 stars 3 stars 4 stars 5 stars
comments

Sunday Drive Tab

Artist: Early November
Tabbed By: Matt Johnston
Album: For All Of This

Im Really sure that this is the 100% correct tab for this song!

Intro (Verse)- Electric Acoustic
<------------------------------------------------>    Intro And Verse(s)
<-7-7-7-7-7-7-7-7-77-7-7-7-7-7-7-7-7------------->
<-7-7-7-7-7-7-7-7-77-7-7-7-7-7-7-7-7------------->
<-5-5-5-5-5-5-5-5-55-5-5-5-5-5-5-5-5------------->
<-x-x-x-x-x-x-x-x-xx-5-5-5-5-5-5-5-5------------->
...And We Wait Above A Road, And Were tunring to Go Home, And The....

Chorus - Electric Acoustic
<------------------------------------------------------------------|
<------------------------------------------------------------------|
<-77777777-7777777--77777777-7777777--77777777-7777777-------------|
<-77777777-7777777--77777777-7777777--77777777-7777777-------------|
<-55555555-5555555--77777777-7777777--55555555-7777777-------------|
<-xxxxxxxx-xxxxxxx--------------------55555555-5555555-------------|

<------------------------------> | Note That When Your Strumming You Strum
<------------------------------>   First Eight Times Then Seven Times. (Strum
<-77777777-7777777------------->   Up And Down For Chorus)
<-77777777-7777777------------->
<-55555555-5555555------------->
<-55555555-5555555------------->
...and you know it's not so easy when... your all alone.....and i wonder...

Verse- Electric Acoustic
<------------------------------------------------>
<------------------------------------------------>
<-7-7-7-7-7-7-7-7-77-7-7-7-7-7-7-7-7------------->
<-7-7-7-7-7-7-7-7-77-7-7-7-7-7-7-7-7------------->
<-5-5-5-5-5-5-5-5-55-5-5-5-5-5-5-5-5------------->
<-x-x-x-x-x-x-x-x-xx-5-5-5-5-5-5-5-5------------->
...i just know something is wrong i just don't know what to do...you say..
[ Tab from: http://www.guitartabs.cc/tabs/e/early_november/sunday_drive_tab_ver_4.html ]
Chorus - Electric Acoustic
<------------------------------------------------------------------|
<------------------------------------------------------------------|
<-77777777-7777777--77777777-7777777--77777777-7777777-------------|
<-77777777-7777777--77777777-7777777--77777777-7777777-------------|
<-55555555-5555555--77777777-7777777--55555555-7777777-------------|
<-xxxxxxxx-xxxxxxx--------------------55555555-5555555-------------|

<------------------------------>
<------------------------------>
<-77777777-7777777------------->
<-77777777-7777777------------->
<-55555555-5555555------------->
<-55555555-5555555------------->

Bridge - Electric Acoustic (Not To Sure About Strumming Pattern)
<-------------------------------------------->
<-------------------------------------------->|Play This Until end Of Song.
<-5----------7------------------------------->
<-5----------7----------7----------7--------->
<-7----------x----------0---------11--------->
<-7----------7----------9----------9--------->
Twelve days gone by since i have saw you last...one more try...

Well thats the tab i hope u enjoy it, its pretty easy, I'm sure it's 100% correct.
Well thats it for now e-mail me if you think there "are" any corrections @ 
L8er

* | Lyrics | * ********(Not copy and pasted,Acual Lyrics)********
And we wait above a road
And were turning to go home
And the silence from the side of the car
Tells me everything and how we are
Cause there's no more trying to make this so right
There's no more trying
Tonight

And you know it's not so easy when
You're all alone
And I wonder if I'm alone
In you're Head

I just know something is wrong
I just don't know what to do
You say its only me, and that I'm so perfect for you
I don't want to try no more
I don't want to make this right
I just want you to be true to me, this time

And you know it's not so easy when
You're all alone
And I wonder if I'm alone
In you're Head

Twelve days gone by since I have saw you last
And I will give this one more try
I'll give it all my best and I will
Ask what could you be doing that is so much fun?
Without me by you're side?
Without me by you're side

And I will take a step back
And I'll let you ahead
And I will take a step away and see if you come back
Because there's no more trying to make this so right
There's no more trying
There's no more trying tonight

We'll never be the same
We will never be the same
We will never be the same
We will never be the same
Until you're gone...
(These lyrics were not copy and pasted,Acual Lyrics)
Comments