Early November - I Want To Hear You Sad Acoustic Chords & Tabs

 

I Want To Hear You Sad Acoustic Chords & Tabs

Early November Chords & Tabs

Version: 1 Type: Tab 0 ratings
1 star 2 stars 3 stars 4 stars 5 stars
comments

I Want To Hear You Sad Acoustic Tab

--------------------------------------------------------------------------
--------------I Want To Hear You Sad (Acoustic) - Early November----------
--------------------------------------------------------------------------
| /  slide up
| \  slide down
| x  Mute note
| *  Harmonic

Tabbed by:Dan Smith
Email:hollywood_bam@hotmail.com

Tuning:
Intro/Outro
e|---------------------------------------------------------------------------
B|---------------------------------------------------------------------------
G|----------------7*--------------------7*------7*---------------------------
D|----7*--7*--7*------------7*--7*--7*-------7*------------------------------
A|---------------------------------------------------------------------------
D|-/5---5---5---5--------/5---5---5---5--------------------------------------

e|---------------------------------------------------------------------------
B|---------------------------------------------------------------------------
G|---------------7*--------------------7*-----7*-----------(2x)--------------
D|----7*--7*--7*------------7*--7*--7*-----7*--------------------------------
A|---------------------------------------------------------------------------
D|-/7---7---7---7--------/7---7---7---7--------------------------------------

Verse    "these eyes..."
e|--------------------------------------------------xx-x-xx------------------
B|--------------------------------------------------xx-x-xx------------------
G|-7----7--7-7----7----7--7-7------------7-----7-7--xx-x-xx------------------
D|-7----7--7-7----7----7--7-7----(2x)----7-----7-7--xx-x-xx------------------
A|-5----5--5-5----x----x--x-x------------5-----5-5--xx-x-xx------------------
D|-5----5--5-5----7----7--7-7------------5-----5-5--xx-x-xx------------------
[ Tab from: http://www.guitartabs.cc/tabs/e/early_november/i_want_to_hear_you_sad_acoustic_tab.html ]
Chorus "for all of this...."
e|---------------------------------------------------------------------------
B|---------------------------------------------------------------------------
G|-7-7-7-7-7-7-7-7----7-7-7-7-7-7-7-7----7-7-7-7-7-7-7-7----7-7-7-7-7-7-7-7--
D|-7-7-7-7-7-7-7-7----7-7-7-7-7-7-7-7----7-7-7-7-7-7-7-7----7-7-7-7-7-7-7-7-
A|-5-5-5-5-5-5-5-5----5-5-5-5-5-5-5-5----x-x-x-x-x-x-x-x----5-5-5-5-5-5-5-5-
D|-0-0-0-0-0-0-0-0----5-5-5-5-5-5-5-5----7-7-7-7-7-7-7-7----5-5-5-5-5-5-5-5--

Bridge  "Every day goes every night goes....."
e|---------------------------------------------------------------------------
B|---------------------------------------------------------------------------
G|-77-77-77-77-77----77-77-77-77-77-------------7-7-7-7----------------------
D|-77-77-77-77-77----77-77-77-77-77------(3x)---7-7-7-7----------------------
A|-xx-xx-xx-xx-xx----55-55-55-55-55-------------5-5-5-5----------------------
D|-44-44-44-44-44----55-55-55-55-55-------------5-5-5-5----------------------

Chorus "for all of this...."
e|---------------------------------------------------------------------------
B|---------------------------------------------------------------------------
G|-7-7-7-7-7-7-7-7----7-7-7-7-7-7-7-7----7-7-7-7-7-7-7-7----7-7-7-7-7-7-7-7--
D|-7-7-7-7-7-7-7-7----7-7-7-7-7-7-7-7----7-7-7-7-7-7-7-7----7-7-7-7-7-7-7-7-
A|-5-5-5-5-5-5-5-5----5-5-5-5-5-5-5-5----x-x-x-x-x-x-x-x----5-5-5-5-5-5-5-5-
D|-0-0-0-0-0-0-0-0----5-5-5-5-5-5-5-5----7-7-7-7-7-7-7-7----5-5-5-5-5-5-5-5--

Intro/Outro
e|---------------------------------------------------------------------------
B|---------------------------------------------------------------------------
G|----------------7*--------------------7*------7*---------------------------
D|----7*--7*--7*------------7*--7*--7*-------7*------------------------------
A|---------------------------------------------------------------------------
D|-/5---5---5---5--------/5---5---5---5--------------------------------------

There it is. email me with questions, or to talk ten. Ill try to make myself
look not so much Maxim Magazine 
===============================================================================
Comments