Early November - Fluxy Chords & Tabs

 

Fluxy Chords & Tabs

Early November Chords & Tabs

Version: 1 Type: Tab 0 ratings
1 star 2 stars 3 stars 4 stars 5 stars
comments

Fluxy Tab

   
here's another tab for another "Early November" song featuring Kenny
from TSL a.k.a The Starting Line.

Dropped D

<----------------------------------------------------------------->
<----------------------------------------------------------------->
<----------------------------------------------------------------->
<----------------------------------------------------------------->
<----4-4-4-4-4-4-4--3-3-3-3--1-1-1----------------4-4-4-4--------->
<-----------------------------------3-3-3-/-4-4-4---------6-6-6-6->


<----------------------------------------------------------------->
<----------------------------------------------------------------->
<----------------------------------------------------------------->
<---4-4-4-4-/-4-4-4-4---0----6-6-6-6-/--6-6-6-6--0---------------->
<---4-4-4-4-/-4-4-4-4---0----6-6-6-6-/--6-6-6-6--0---------------->
<---4-4-4-4-/-4-4-4-4---0----6-6-6-6-/--6-6-6-6--0---------------->

THEN for the lead 

<----------------------------------------------------------------->
<----------------------------------------------------------------->
<------6-6-6-6/5-5-5-5-------------------------------------------->
<----------------------6-6-6-6------------------------------------>
<----------------------------------------------------------------->
<----------------------------------------------------------------->
[ Tab from: http://www.guitartabs.cc/tabs/e/early_november/fluxy_tab.html ]
<----------------------------------------------------------------->
<----------------------------------------------------------------->
<----------------------------------------------------------------->
<-------6---6----8---6-------------------------------------------->
<-------4---3----8---6-------------------------------------------->
<----------------8---6-------------------------------------------->

Chorus is just like the Beginning (not the intro but after that)

<----------------------------------------------------------------->
<----------------------------------------------------------------->
<----------------------------------------------------------------->
<---4-4-4-4-/-4-4-4-4---0----6-6-6-6-/--6-6-6-6--0---------------->
<---4-4-4-4-/-4-4-4-4---0----6-6-6-6-/--6-6-6-6--0---------------->
<---4-4-4-4-/-4-4-4-4---0----6-6-6-6-/--6-6-6-6--0---------------->

then for the bridge:
NOTE: after you do the "4's", let the open strings ring for a quick second.
<----------------------------------------------------------------->
<----------------------------------------------------------------->
<----------------------------------------------------------------->
<---4-4-4-4-/-4-4-4-4---0----6-6-6-6-/--6-6-6-6--0---------------->
<---4-4-4-4-/-4-4-4-4---0----6-6-6-6-/--6-6-6-6--0---------------->
<---4-4-4-4-/-4-4-4-4---0----6-6-6-6-/--6-6-6-6--0---------------->

well there you have it, a pretty easy song. if you have any problems or Questions
or anything just Email me @ MakeMeSad00@aol.com. Have fun
Comments