Early November - Ever So Sweet Chords & Tabs

 

Ever So Sweet Chords & Tabs

Early November Chords & Tabs

Version: 4 Type: Tab 0 ratings
1 star 2 stars 3 stars 4 stars 5 stars
comments

Ever So Sweet Tab

   
tuning-drop D (E string tuned down 1 step)
h= harmoic
s= slide
x= dont play
f= tap body of guitar with tip of finger
m= mute with fingers on neck

1) "i just found a friend....."
D-h12---0---7s9-7--5-----5---5---9---7-|
A-h12---0---------5-5---5-5--5---9---7-|
d-h12---7------------7-7---7-7---7---7-|
G-h12---7-------------7------7---7---7-|
b-h12---0--------------------0---0---x-|
e-h12---0--------------------0---0---x-|

2) "ever so sweet"
D-0---5---9---7-|
A-0---5---9---7-|
d-7---7---7---7-|
G-7---7---7---7-|
b-0---0---0---x-|
b-0---0---0---x-|
[ Tab from: http://www.guitartabs.cc/tabs/e/early_november/ever_so_sweet_tab_ver_4.html ]
3) "ever so sweet you baked it in cakes for me"
D-0---9---7---5---9---7-|
A-0---9---7---5---9---7-|
d-7---7---7---7---7---7-|
G-7---7---7---7---7---7-|
b-0---0---x---0---0---x-|
e-0---0---x---0---0---x-|

back to second part

end)
D-0---5---9---7---f---5---f---0-|
A-0---5---9---7---f---5---f---0-|
d-7---7---7---7---f---7---f---7-|
G-7---7---7---7---f---7---f---7-|
b-0---0---0---x---f---0---f-----|m
e-0---0---0---x---f---0---f-----|m

ok well thats prety much it.....listen to cd for timing and all that good stuff k
e mail me if you have any problems or need another tab at bassist_0555@rock.com
Comments