Early November - Ever So Sweet Chords & Tabs

 

Ever So Sweet Chords & Tabs

Early November Chords & Tabs

Version: 3 Type: Tab 0 ratings
1 star 2 stars 3 stars 4 stars 5 stars
comments

Ever So Sweet Tab

Most of the other tabs ive seen for this are right, except for the bridge.
This tab is 100% correct i have seen Ace play it many times.

VERSE

"i just found a friend, in one of your lies, to treat me so nice
 I cant believe my bones"

eb--0--0--0--0-----------
Bb--0--0--0--0-----------
Gb--1--2--6--4-----------
Db--2--2--6--4-----------
Ab--2--0--4--2-----------
Eb--x--x--x--x-----------

"when they say, so many things, they tell me i am fine, believe me I,
 I try"

eb--0--0--0--0--0--------
Bb--0--0--0--0--0--------
Gb--1--2--6--4--2--------
Db--2--2--6--4--2--------
Ab--2--0--4--2--0--------
Eb--x--x--x--x--x--------

"Oooo Ooo Ooo"

eb--0--0--0--0-----------
Bb--0--0--0--0-----------
Gb--1--2--6--4-----------
Db--2--2--6--4-----------
Ab--2--0--4--2-----------
Eb--x--x--x--x-----------


CHORUS

"ever so sweet, you make this seem, the way things go, its not my fault"

eb--0--0--0--0-----------
Bb--0--0--0--0-----------
Gb--1--2--6--4-----------
Db--2--2--6--4-----------
Ab--2--0--4--2-----------
Eb--x--x--x--x-----------

"and ill miss, ill miss you so good, all of those nights, we lost our way  back home"

eb--0--0--0--0--0--------
Bb--0--0--0--0--0--------
Gb--1--2--6--4--2--------
Db--2--2--6--4--2--------
Ab--2--0--4--2--0--------
Eb--x--x--x--x--x--------

"ever so sweet, you baked it in cakes for me"

eb--0--0--0--0--------
Bb--0--0--0--0--------
Gb--1--6--4--2--------
Db--2--6--4--2--------
Ab--2--4--2--0--------
Eb--x--x--x--x--------

"what you left behind, it hurts my teeth"

eb--0--0----------------
Bb--0--0----------------
Gb--6--4----------------
Db--6--4----------------
Ab--4--2----------------
Eb--x--x----------------
[ Tab from: http://www.guitartabs.cc/tabs/e/early_november/ever_so_sweet_tab_ver_3.html ]
"bring in the past with the postcards you sent for me"

eb--0--0--0--0----------
Bb--0--0--0--0----------
Gb--1--6--4--2----------
Db--2--6--4--2----------
Ab--2--4--2--0----------
Eb--x--x--x--x----------

"every lie, it brings me right back down"

eb--0--0--0-------------
Bb--0--0--0-------------
Gb--6--4--2-------------
Db--6--4--2-------------
Ab--4--2--0-------------
Eb--x--x--x-------------


BRIDGE

"cant you see the wall you build for me, cant you see the wall you build for me,
were not special, were not special, were not special, im not special, im not
special"

eb----------------------
Bb----------------------
Gb--6--(6)--(6)---------
Db--6--(6)--(6)--------- x3
Ab--4--(4)--(4)---------
Eb--x--(x)--(x)---------
       (palm mute)

eb----------------------
Bb----------------------
Gb--6--(6)--(6)---------
Db--6--(6)--(6)--------- x3
Ab--4--(4)--(4)---------
Eb--2--(2)--(2)---------
       (palm mute)

CHORUS

"ever so sweet, you baked it in cakes for me"

eb--0--0--0--0----------
Bb--0--0--0--0----------
Gb--1--6--4--2----------
Db--2--6--4--2----------
Ab--2--4--2--0----------
Eb--x--x--x--x----------

"what you left behind, it hurts my teeth"

eb--0--0--0-------------
Bb--0--0--0-------------
Gb--6--4--2-------------
Db--6--4--2-------------
Ab--4--2--0-------------
Eb--x--x--x-------------

"bring in the past with the postcards you sent for me"

eb--0--0--0--0----------
Bb--0--0--0--0----------
Gb--1--6--4--2----------
Db--2--6--4--2----------
Ab--2--4--2--0----------
Eb--x--x--x--x----------

"every lie, it brings me right back down"

eb--0--0--0-------------
Bb--0--0--0-------------
Gb--6--4--2-------------
Db--6--4--2-------------
Ab--4--2--0-------------
Eb--x--x--x-------------
Comments