Early November - Ever So Sweet Chords & Tabs

 

Ever So Sweet Chords & Tabs

Early November Chords & Tabs

Version: 1 Type: Tab 0 ratings
1 star 2 stars 3 stars 4 stars 5 stars
comments

Ever So Sweet Tab

   
         "ever so sweet" by the early november

tuning: Eb Ab Db Gb Bb Eb (1/2 step down)


he does some picking but it's all based on these chords so figure it out yourself.
figure out the rhythm for yourself too.

______________________________________________
song structure:

Section 1
Section 1 only once (with the "ooooohhs")
Section 1
Section 2
Section 3
Section 2
ending
______________________________________________



section 1: 


eb--0-----------0-----------0-----------0-----------                     -0-
Bb--0-----------0-----------0-----------0-----------                     -0-
Gb--1-----------2-----------6-----------4----------- repeat and          -2-
Db--2-----------2-----------6-----------4----------- second time end on: -2-
Ab--2-----------0-----------4-----------2-----------                     -0-
Eb--0-----------------------------------------------                     ---


section 2:
[ Tab from: http://www.guitartabs.cc/tabs/e/early_november/ever_so_sweet_tab.html ]
eb--0-----0--0--0-----------0-----------0-----------                      -0-
Bb--0-----0--0--0-----------0-----------0-----------                      -0-
Gb--1-----6--4--2-----------6-----------4----------- repeat and           -2-
Db--2-----6--4--2-----------6-----------4----------- second time end on:  -2-
Ab--2-----4--2--0-----------4-----------2-----------                      -0-
Eb--0-----------------------------------------------                      ---


section 3:  

eb----------------------------------------------- play this 6 times; the first
Bb----------------------------------------------- 2 times soft and mostly palm
Gb--6-------------------------------------------- muted, and the other 4 times
Db--6-----------4-------------------------------- hard up and down strokes,
Ab--4-----------4-------------------------------- still in 6/8 time.
Eb--------------2--------------------------------


ending:  

eb-----------0-----------0-----------
Bb-----------0-----------0-----------
Gb-----------2-----------0-----------
Db-----------2-----------2-----------
Ab-----------0-----------2-----------
Eb-----------------------0-----------


tabbed by dustin goldklang... feel free to use it or post it wherever you want.
Comments