Early November - All We Ever Needed Acoustic Chords & Tabs

 

All We Ever Needed Acoustic Chords & Tabs

Early November Chords & Tabs

Version: 1 Type: Tab 0 ratings
1 star 2 stars 3 stars 4 stars 5 stars
comments

All We Ever Needed Acoustic Tab

   
-------------------------------------------------------------------------------
		All We Ever Needed (Acoustic) - The Early November
-------------------------------------------------------------------------------
Tabbed by: MTizzzzle
Email: mattahs02@adelphia.net

Tuning: Eb Standard (Eb Ab Db Gb Bb Eb)

Intro/Verse: Clean
eb|---------------------------------------------------------------------------|
Bb|---------------------------------------------------------------------------|
Gb|----------9---------------9---------------9---------------9----------------|
Db|------9-------9-------9-------9-------9-------9-------9-------9------------|
Ab|--7---------------7---------------6---------------6------------------------|
Eb|---------------------------------------------------------------------------|

eb|---------------------------------------------------------------------------|
Bb|---------------------------------------------------------------------------|
Gb|----------9---------------9---------------9---------------9----------------|
Db|------9-------9-------9-------9-------9-------9-------9-------9------------|
Ab|--0---------------0---------------0---------------0------------------------|
Eb|---------------------------------------------------------------------------|

eb|---------------------------------------------------------------------------|
Bb|---------------------------------------------------------------------------|
Gb|----------9---------------9---------------9---------------9----------------|
Db|------9-------9-------9-------9-------9-------9-------9-------9------------|
Ab|--7---------------7---------------6---------------6------------------------|
Eb|---------------------------------------------------------------------------|
[ Tab from: http://www.guitartabs.cc/tabs/e/early_november/all_we_ever_needed_acoustic_tab.html ]
eb|---------------------------------------------------------------------------|
Bb|---------------------------------------------------------------------------|
Gb|--9~-----------------------------------------------------------------------|
Db|--9~-----------------------------------------------------------------------|
Ab|--0~-----------------------------------------------------------------------|
Eb|---------------------------------------------------------------------------|

Chorus: Clean
eb|--0---0------0---0------0---0------2------2---2----------------------------|
Bb|--0---0------0---0------0---0------2------2---2----------------------------|
Gb|--1---1------1---1------1---1------2------2---2----------------------------|
Db|--2---2------2---2------2---2------4------4---4------4---6-----------------|
Ab|--2---2------2---2------2---2------4------4---4------4---4-----------------|
Eb|--0---0------0---0------0---0------2------2---2------2---4-----------------|

Eb|------5------5---5------5---5------5------5---5---5---5---5----------------|
Bb|------5------5---5------5---5------5------5---5---5---5---5----------------|
Gb|------6------6---6------6---6------6------6---6---6---6---6----------------|
Db|------7------7---7------7---7------7------7---7---7---7---7----------------|
Ab|------7------7---7------7---7------7------7---7---7---7---7----------------|
Eb|------5------5---5------5---5------5------5---5---5---5---5----------------|

Eb|--5---5------5---5------5---5------5------5---5---5---5---5----------------|
Bb|--5---5------5---5------5---5------5------5---5---5---5---5----------------|
Gb|--6---6------6---6------6---6------6------6---6---6---6---6----------------|
Db|--7---7------7---7------7---7------7------7---7---7---7---7----------------|
Ab|--7---7------7---7------7---7------7------7---7---7---7---7----------------|
Eb|--5---5------5---5------5---5------5------5---5---5---5---5----------------|


Order:
Intro/Verse
Chorus
Verse
Chrous
Intro/Verse for Outro

It sounds right to me, some things could be a little off though cause I haven't
been playing that long, corrections are more than welcome, EMail me if you have
any suggestions at all.  Enjoy.

P.S. I'm too lazy to type out the strum pattern, it's fairly simple though, you
should be able to figure it out.

| /  slide up
| \  slide down
| h  hammer-on
| p  pull-off
| ~  vibrato (let ring)
| +  harmonic
| x  Mute note
===============================================================================
Comments