Eagles Of Death Metal - Speaking In Tongues Chords & Tabs

 

Speaking In Tongues Chords & Tabs

Eagles Of Death Metal Chords & Tabs

Version: 1 Type: Tab 1 rating
1 star 2 stars 3 stars 4 stars 5 stars
comments

Speaking In Tongues Tab

Artist: Eagles of Death Metal
Song: Speaking In Tongues
[ Tab from: http://www.guitartabs.cc/tabs/e/eagles_of_death_metal/speaking_in_tongues_tab.html ]
This is a pretty cool song that is real easy to play once you get
the rhythm down. Listen to the song to get the exact timing. There
are really only two riffs that are played throughout the song. Sometimes
they are played with distortion, sometimes without and sometimes they
are played by one guitar and other times two. There are also a couple
of background guitar fills but I didn't tab those since they mainly just
a few notes played over and over. Any questions or comments can be
sent to bborred@hotmail.com


Riff 1:

|----------------------------------------------------|
|----------------------------------------------------|
|-7---7-7-6-5-5-5----5-5-5-4-4-4-4-4-2-2-2-4-4-5-5-5-|
|-7---7-7-6-5-5-5----5-5-5-4-4-4-4-4-2-2-2-4-4-5-5-5-|
|-5---5-5-4-3-3-3----3-3-3-2-2-2-2-2-0-0-0-2-2-3-3-3-|
|----------------------------------------------------|


Riff 2:

|--------------------|
|--------------------|
|--------------------|
|-7-7-7-9-9-10-10-10-|
|-7-7-7-9-9-10-10-10-|
|-5-5-5-7-7--8--8--8-|



Comments