Eagles - Witchy Woman Chords & Tabs

 

Witchy Woman Chords & Tabs

Eagles Chords & Tabs

Version: 2 Type: Tab 0 ratings
1 star 2 stars 3 stars 4 stars 5 stars
comments

Witchy Woman Tab

   
Lyrics by Don Henley
Music by Bernie Leadon

Tab Legends:
    /-  Slide
    h-  Hammer
  ===-  Mute String
   bb-  Bend up two frets
 bb><-  Bend up then back
    p-  Pull-off
    m-  One measure
   mm-  Two measures
    v-  Vibrato
  ***-  Let it ring
   b^-  Bend twice
  +++-  Retard
    O-  First time through
   OO-  First Repeat


e---I-----3-3--1------1---------| R
B---N-----3-3--1-3-3--1-3-3--1--| E T
G---T------------2-2----2-2--0--| P W
D---R---------------------------| E I
A---O---------------------------| A C
E-------------------------------| T E

O                   OO
e-------------      e--------------|
B-------------      B--------------|
G--3-0--------      G--3--3/5------|
D--3-0--------      D--3--3/5------|
A-------------      A--------------|
E-------------      E--------------|

e----------------| R
B------3---5p3---| E T T
G------3---5p3---| P H I
D--3/5---5-------| E R M
A----------------| A E E
E----------------| T E S

Chorus:
Gm(m) D7(mm)

e---------3---| R C
B--5-3----3---| E H
G--5-3----3---| P O
D------5--5---| E R
A-------------| A U
E-------------| T S

Interlude:
e-----------------------------------------|
B--5b-------------6-3---3-----------6/8v--|
G--5b--------5-5------5---5-3-5-3---------|
D-----3--5/7----------------------5-------|
A-----------------------------------------|
E-----------------------------------------|
                                      ****

Chorus:
Gm(m) D7(mm)

e----------| R C
B--5-3-----| E H
G--5-3-----| P O
D------5---| E R
A----------| A U
E----------| T S

e------------------------------3------------| R
B---S-----5b-------------------3-6-3--------| E
G---O-----5b--------5--5-------------5-3----| P
D---L--------3--5/7------7-5-7-----------5--| E
A---O---------------------------------------| A
E-------------------------------------------| T
2nd time: b^
[ Tab from: http://www.guitartabs.cc/tabs/e/eagles/witchy_woman_tab_ver_2.html ]
e---------------------------------------------|
B----------------6-8-8-6-8--8bb-8bb-8bb-8-----|bb><
G-----3--5--5/7-------------===============---|
D--5------------------------------------------|
A---------------------------------------------|
E---------------------------------------------|

e--------------------------------------------|
B--6-------------------------------------6---|
G-----7--7-5--5-3--------3----3--5--5/7------|
D------------------5-3-5---5-----------------|
A--------------------------------------------|
E--------------------------------------------|

e-8-6----------------------------------------|
B-----8-6-6h8-8-6----------------------------|
G-----------------7-5-3--3h5-3-2-----------3-|
D--------------------------------3-2-3-4/5---|
A--------------------------------------------|
E--------------------------------------------|

e----------6-----|
B------6-8---8v--|
G--5/7-----------|
D----------------|
A----------------|
E----------------|
             ****

Conclusion:
Gm(mm) Dm(mm)
D(mm) Gm(mm)

e--3-3--1------1----------| R
B--3-3--1-3-3--1-3-3--1---| E
G---------2-2----2-2--0---| P
D-------------------------| E
A-------------------------| A
E-------------------------| T

O             OO                             Gm
e-------      e-------------------------------3-|
B-------      B--6-3----3---------------------3-|
G--3-0--      G-------5----5--3---5--3--------3-|
D--3-0--      D--------------------------3----5-|
A-------      A-------------------------------5-|
E-------      E-------------------------------3-|
               +++++++++++++++++++++++++++

e---------------------------------------------|
B--------------- Time: 4/4 -------------------|
G----- The fingering and hand posistion ------|
D------------ is in the G scale. -------------|
A---------- Besides that Have fun! -----------|
E---------------------------------------------|
Comments