Eagles - The Long Run Chords & Tabs

 

The Long Run Chords & Tabs

Eagles Chords & Tabs

Version: 1 Type: Tab 0 ratings
1 star 2 stars 3 stars 4 stars 5 stars
comments

The Long Run Tab

   
-----------------------------------------------------------------------------
			     The Long Run - Eagles
-----------------------------------------------------------------------------
Tabbed by:Daniel Hart
Email:dhart AT comcast.net

I havent seen any real useful tab on this song. So here goes a try at it.
I was inspired by the Eagles concert to tab this out, as it was the opening
Song. And I always liked it.

Tuning:EADGBE   Key of Am

Chords throughout intro solo and verse
e|---8----8--x-x-x-x--8-8-8--8-----13--13--13-13-13-13--|
B|---8---10--x-x-x-x-10-8-8-10-----13--15--15-13-13-15--|
G|---7----7--x-x-x-x--7-7-7--7-----14--14--14-14-14-14--|
D|------------------------------------------------------|
A|------------------------------------------------------|
E|------------------------------------------------------|

Intro solo
e|--8~------------------------------8---10b11-11b10-10-8----8--13/8-|
B|-----10-8-8/10-8-------------8-10----------------------10---------|
G|-----------------9-7-5~--5/9--------------------------------------|
D|------------------------------------------------------------------|
A|------------------------------------------------------------------|
E|------------------------------------------------------------------|

     Am
e|----0--------------------------------------|
B|----1--------------------------------------|
G|----2--------------------------------------|
D|----2--------------------------------------|
A|----0--------------------------------------|
E|-------------------------------------------|
   Ooohh I did some damage I know its true

     F
e|---1----------------------------------------|
B|---1----------------------------------------|
G|---2----------------------------------------|
D|---3----------------------------------------|
A|---3----------------------------------------|
E|---1----------------------------------------|
   Didnt know I was so lonely til I found you

   B   C                           E   F
e|--------------------------------------------|
B|--------------------------------------------|
G|-4---5---------------------------9--10------|
D|-4---5---------------------------9--10------|
A|-2---3---------------------------7---8------|
E|--------------------------------------------|
           you can go           In the long run
           We can handle        is a strong one

[ Tab from: http://www.guitartabs.cc/tabs/e/eagles/the_long_run_tab.html ]
         Am                                 F
e|--------8~-------------------------7-/-5~-----------|
B|----------------------------------------------------|
G|----------------------------------------------------|
D|----------------------------------------------------|
A|----------------------------------------------------|
E|----------------------------------------------------|
   People talkin' about us                              When it all comes down

e|------------------------------13--------|
B|-----------------------8--10------------|
G|------------------5/9-------------------|
D|----------------------------------------|
A|----------------------------------------|
E|----------------------------------------|
   In the long run

e|---------------------------------------------------------(15)--|
B|---------------------8-10 8~-------------------------(12)------|
G|----------------5/9------------------------------(12)----------|
D|-----------------------------------5-5-5-5---(12)--------------|
A|-----------------------------------5-5-5-5---------------------|
E|-----------------------------------3-3-3-3---------------------|
   it's a long run                                                                   
time play arepeggio over chord)


  Lead
e|------------------------------------8-----------8------------|
B|-------8------------8-----------10b---10r-8--------10-8------|
G|---7b8---8b7-5--7b8---8b7-5~----------------10----------10---|
D|-------------------------------------------------------------|
A|-------------------------------------------------------------|
E|-------------------------------------------------------------|

e|---------------5---------------------------------------------|
B|-------8---------8-7-5---------------------------------------|
G|---7b8---8b7-5---------5--5/9 9--9/7-5----5/9 9/7 5----------|
D|---------------------------------------7------------7--------|
A|-------------------------------------------------------------|
E|-------------------------------------------------------------|

e|-----8-5--------------------------8-------------8--10b-------|
B|---------8------------8-10-----10---10-----8/10--------10~---|
G|-----------8p7-5--7/9------7~----------10--------------------|
D|-------------------------------------------------------------|
A|-------------------------------------------------------------|
E|-------------------------------------------------------------|


| /  slide up
| \  slide down
| h  hammer-on
| p  pull-off
| ~  vibrato
| +  harmonic
| x  Mute note
===============================================================================

I didnt tab some fills, they are variations of the intro riff, and you can easily pick 
out.
Or improvise on Am pentatonic, or Am blues scale. I couldnt quite hear the second guitar 
the riffs,
I couldnt tab those parts.
Thanks for checking out my tab!
Dan Hart
Comments