Eagles - Tequila Sunrise Chords & Tabs

 

Tequila Sunrise Chords & Tabs

Eagles Chords & Tabs

Version: 1 Type: Tab 0 ratings
1 star 2 stars 3 stars 4 stars 5 stars
comments

Tequila Sunrise Tab

   
Eagles - Tequila Sunrise

Chords: EADGBe
Am      x02210
Am7     x02010
B       x24442
Bm      x24432
C       x32010
D       xx0232
D7      xx0212
E       022100
Em      022000
Em7     022030
G       3x0003
G6      3x2003
Gmaj7   3x4003
G/D     xx0433

Note: tabs in hexadecimal notation, i.e. a=10, b=11, c=12, d=13, e=14, f=15, in
order to maintain rhythm of 1 character = 1 semi-quaver.


 {1}
   G       G6       G       G6       G       G6       G       G6
e |3--33-3-3-3-3-3-|3--33-3-3-3-3-3-|3--33-3-3-3-3-3-|3--33-3-3-3-3-3-|
B |0--00-0-0-0-0-0-|0--00-0-0-0-0-0-|0--00-0-0-0-0-0-|0--00-0-0-0-0-0-|
G |0--00-0-0-0-0-0-|0--00-0-0-0-0-0-|0--00-0-0-0-0-0-|0--00-0-0-0-0-0-|
D |0--00-0-2-2-2-2-|0--00-0-2-2-2-2-|0--00-0-2-2-2-2-|0--00-0-2-2-2-2-|
A |x--xx-x-x-x-x-x-|x--xx-x-x-x-x-x-|x--xx-x-x-x-x-x-|x--xx-x-x-x-x-x-|
E |3--33-3-3-3-3-3-|3--33-3-3-3-3-3-|3--33-3-3-3-3-3-|3--33-3-3-3-3-3-|

 {5}
   Am               D                G       G6       Gmaj7   G6
e |0--00-0-0-0-0-0-|2--22-2-2-2-2-2-|3--33-3-3-3-3-3-|3--33-3-3-3-3-3-|
B |1--00-0-0-0-0-0-|3--33-3-3-3-3-3-|0--00-0-0-0-0-0-|0--00-0-0-0-0-0-|
G |2--22-2-2-2-2-2-|2--22-2-2-2-2-2-|0--00-0-0-0-0-0-|0--00-0-0-0-0-0-|
D |2--22-2-2-2-2-2-|0--00-0-0-0-0-0-|0--00-0-2-2-2-2-|4--44-4-2-2-2-2-|
A |0--00-0-0-0-0-0-|x--xx-x-x-x-x-x-|x--xx-x-x-x-x-x-|x--xx-x-x-x-x-x-|
E |x--xx-x-x-x-x-x-|x--xx-x-x-x-x-x-|3--33-3-3-3-3-3-|3--33-3-3-3-3-3-|


{9}
|G                 |G             |D             |D             |Am
  It's another tequila sunrise       starin' slowly 'cross the sky 

|D7        |G   G6  |Gmaj7  G6
  said goodbye.  

{17}     
|G              |G         |D               |D                    |Am
  He was just a hired hand   workin' on the dreams he planned to try

|D7            |G  Gmaj7 |G6   G
  the days go by.

{25}
|Em                   |C            |Em             |C              |Em
 Ev'ry night when the sun goes down,   just another lonely boy in town,

    |Am                 |D7    |G/D
and she's out runnin' round........

{33}
|G                   | G         | D              |D                |Am
   She wasn't just another woman   and I couldn't keep from comin' on,

|D7              |G  G6 | G
  it's been so long.

{41}                                                            {45} 
|G               |G             |D              |D              |Am     
  Oh, and it's a hollow feelin',  when it comes down to dealin' friends, 

[ Tab from: http://www.guitartabs.cc/tabs/e/eagles/tequila_sunrise_tab.html ]
 {46}
   D7               G                G                
e |2--22-2-2-2-2-2-|3--33-3-3-3-3-3-|3-----777-8-8-a-|
B |1--11-1-1-1-1-1-|0--00-0-0-0-0-0-|0-----888-a-a-c-|
G |2--22-2-2-2-2-2-|0--00-0-0-0-0-0-|0-----777-9-9-c-|
D |0--00-0-0-0-0-0-|0--00-0-0-0-0-0-|0---------------|
A |x--xx-x-x-x-x-x-|x--xx-x-x-x-x-x-|x---------------|
E |x--xx-x-x-x-x-x-|3--33-3-3-3-3-3-|3---------------|
       it never ends.___________

 {49}
   G                G                D                D               
e |a-----a-a-----c-|--a---8---7---55|5-----5-5-----7-|8-7-6-5-----4---|
B |c-----c-c-----d-|--c---a---8---77|7-----7-7-----9-|a-9-8-7-----6---|
G |c-----c-c-----c-|--c---9---7---77|7-----7-7-----7-|7-7-7-7-----7---|
D |----------------|----------------|----------------|----------------|
A |----------------|----------------|----------------|----------------|
E |----------------|----------------|----------------|----------------|

 {53}
   Am7              D                G                G
e |0---------------|----------------|-------0--------|------aca-7-5-3-|
B |8---------------|--------------0-|------3-3-1-0---|------8-8-7-5-3-|
G |5-----------5---|----------0-2---|0-------------2-|0---------------|
D |7---------7-----|6/7---024-------|----------------|----------------|
A |----------------|----------------|----------------|----------------|
E |----------------|----------------|----------------|----------------|


{57} 
|Am            |D              |Bm               |E                  |Am   
  Take another shot of courage,   wonder why the right words never come,

{62}
|B               | Em7     | A
  You just get numb.

{65}
| G                |G         |D           |D                   |Am
 It's another tequila sunrise  this old world still looks the same

{70}
|D7         |
  another frame.


 {71}
   G       G6       Gmaj7   G6       G       Gmaj7    G6      G
e |3--33-3-3-3-3-3-|3--33-3-3-3-3-3-|3--33-3-3-3-3-3-|3--33-3-3-3-3-3-|
B |0--00-0-0-0-0-0-|0--00-0-0-0-0-0-|0--00-0-0-0-0-0-|0--00-0-0-0-0-0-|
G |0--00-0-0-0-0-0-|0--00-0-0-0-0-0-|0--00-0-0-0-0-0-|0--00-0-0-0-0-0-|
D |0--00-0-2-2-2-2-|4--44-4-2-2-2-2-|0--00-0-4-4-4-4-|2--22-2-0-0-0-0-|
A |x--xx-x-x-x-x-x-|x--xx-x-x-x-x-x-|x--xx-x-x-x-x-x-|x--xx-x-x-x-x-x-|
E |3--33-3-3-3-3-3-|3--33-3-3-3-3-3-|3--33-3-3-3-3-3-|3--33-3-3-3-3-3-|

frame_________                                                    (mmmmm__


 {75}
   G       Gmaj7    G6      G        G6
e |3--33-3-3-3-3-3-|3--33-3-3-3-3-3-|3---------------|
B |0--00-0-0-0-0-0-|0--00-0-0-0-0-0-|0---------------|
G |0--00-0-0-0-0-0-|0--00-0-0-0-0-0-|0---------------|
D |0--00-0-4-4-4-4-|2--22-2-0-0-0-0-|2---------------|
A |x--xx-x-x-x-x-x-|x--xx-x-x-x-x-x-|x---------------|
E |3--33-3-3-3-3-3-|3--33-3-3-3-3-3-|3---------------|

  mmm.________________________________)
Comments