Eagles - One Of These Nights Chords & Tabs

 

One Of These Nights Chords & Tabs

Eagles Chords & Tabs

Version: 1 Type: Tab 0 ratings
1 star 2 stars 3 stars 4 stars 5 stars
comments

One Of These Nights Tab

   
e------------  12--|
b------------  12--|
g------------  12--|
d---4s5------  ^---|
a-------5s7--------| THAT IS THE GUITAR PART THAT IS PLAYED DURING THE BASS LINE
e-0----------------|
   ^^^^^^^
THIS IS THE BASS LINE
e-7---
b-7h8-
g-7h9-
d-7h9-
a-7---
e-----

^^^ that is the distortited part do 4 times

then do
e-7-7-7-7-|
b-7-7-7-7-|
g-7-7-7-7-|
d-9-9-9-9-|
a-9-9-9-9-|
e-7-7-7-7-|
[ Tab from: http://www.guitartabs.cc/tabs/e/eagles/one_of_these_nights_tab.html ]
ONE OF THESE NIGHTS one of these
                   E-12-12-12-12-12-12-12-12---|
                   B-12-12-12-12-12-12-12-12---|
                   G-12-12-12-12-12-12-12-12---|
                   D-14-14-14-14-14-14-14-14---|
                   A---------------------------|
                   E---------------------------|
CRAZY OLD NIGHTS
e-7-7-7-7-7-7-7-7-7-7-7-7-7--|
b-7-7-7-7-7-7-8-8-8-8-8-8-8--|
g-7-7-7-7-7-7-9--9--9--9--9--|
d-9-9-9-9-9-9-10-10-10-10-10-|
a----------------------------|
e----------------------------|

e-5-5-5-5-5-5-5-5-5-|
b-5-5-5-5-5-5-5-5-5-|
g-5-5-5-5-5-5-5-5-5-|
d-7-7-7-7-7-7-7-7-7-|
a-------------------|
e-------------------|

e-2-2-2-2-2-2-2-2-2-2-|
b-3-3-3-3-3-3-3-3-3-3-|
g-4-4-4-4-4-4-4-4-4-4-|
d-4-4-4-4-4-4-4-4-4-4-|
a---------------------|
e---------------------|

e-8-8-8-8-8-8-8-8--|
b-8-8-8-8-8-8-8-8--|
g-9-9-9-9-9-9-9-9--|
d10-10-10-10-10-10-|
a------------------|
e------------------|

 YOU JUST HAVE TO LISTEN THE THE SONG AND PUT THE CHORDS IN THE RIGHT ORDER AND IF U
CANT DO THAT U MUST SUCK AT GUITAR BECAUSE ITS NOT THAT HARD BELIVE ME
tabedd by james pugrad and corbin ellis and jared kinder...........and thats it
Comments