Eagles - In The City Chords & Tabs

 

In The City Chords & Tabs

Eagles Chords & Tabs

Version: 1 Type: Tab 0 ratings
1 star 2 stars 3 stars 4 stars 5 stars
comments

In The City Tab

   
tabbed by james pugrad jared kinder

e-x-x-x----2---------                    song-in the city(solo)
b-x-x-x-2--3----2----                    band-eagles(the album verson the 
g-x-x-x-2--2----2-1-- main  riff         very best of the eagles )
d-x-x-x-2-------2-2-- 
a-x-x-x-----------2--
e-x-x-x-----------0--


D                 A      E      A    D                  A     E
SoLo

e--------19~~~~~~~~~~~~~~~~~~~~~~~~~~~~~--21s19--19~~~~~~-
b-17s14---------------------------------------------------
g---------------------------------------------------------
d---------------------------------------------------------
a---------------------------------------------------------
e---------------------------------------------------------


e-----------------------------------------------------------------------
b------------------19-18----------19\-/19---18\17-------19/21-----------
g-------------/19-----18/19---/19-----/19---------17/19--------17/19----
d--19s17----------------------------------------------------------------
a---------15------------------------------------------------------------
e-----------------------------------------------------------------------
[ Tab from: http://www.guitartabs.cc/tabs/e/eagles/in_the_city_tab.html ]
e---------9----11----12----------19----19---19-----19---21\19-19-
b------------------------17/19------19----19--19-----------------
g-15-------------------------------------------------------------
d---------9----11----12------------------------------------------
a----------------------------------------------------------------
e----------------------------------------------------------------

e---------------------------------------------------------------------
b--18\17--------19--19\17--------14-------/14\----------------18\17---
g--------17/19------------17/19-----19\17-/19\-15---/19\17-15---------
d---------------------------------------------------------------------
a---------------------------------------------------------------------
e---------------------------------------------------------------------

e------------------------------------------------------------------
b-18\17-----------------------19--21\---------21-(21)---------19---
g-------17/19-15--------17/19----------17/19----------17/14--------
d------------------------------------------------------------------
a------------------------------------------------------------------
e------------------------------------------------------------------

this is 100% right this solo is one hard solo to sound out but it is
not hard to play in two weeks i sould have to tab for joe walshs song
(one day at a time) me james an jared sould know how to play it but
for the next two weeks just rty to learn this solo
Comments