Eagles - Hotel California Live Chords & Tabs

 

Hotel California Live Chords & Tabs

Eagles Chords & Tabs

Version: 1 Type: Tab 6 ratings
1 star 2 stars 3 stars 4 stars 5 stars
comments

Hotel California Live Tab

                       Hotel California (Live Version, 1994)
                                     The Eagles

Guitar 1: 12-String
|------9-------------------------------|------x-------------------------|
|-----7--------------------------------|-----10-------------------------|
|----7---------------------------------|----9---------------------------|
|---7----------------------------------|---11---------------------------|
|--9-----------------------------------|--12----------------------------|
|-7------------------------------------|-9------------------------------|
Guitar 2: Acoustic
|--------------------------------------|--------------------------------|
|----------------2-3-5-7-7/8\7-5/7~~~~-|---------3-2--------------------|
|---4-4h6p4p3-4------------------------|----2-4------0-2-2h4-2----------|
|--------------------------------------|------------------------4\2-----|
|--------------------------------------|----------------------------5/7-|
|--------------------------------------|--------------------------------|
Guitar 3: Classical
|--------------------------------------|--------------------------------|
|--------------------------------------|--------------------------------|
|--------------------------------------|--------------------------------|
|--------------------------------------|--------------------------------|
|--------------------------------------|--------------------------------|
|--------------------------------------|--------------------------------|


|------7---------------------|-------------|-------------------------2----|
|-----8----------------------|-------------|-------------------------2----|
|----9-----------------------|-------------|-------------------------3----|
|---9------------------------|-------------|----------------2-------------|
|--7-------------------------|-------------|--------------4---------------|
|-7--------------------------|-------------|------------2-----------------|

|------0------0------0------0|---7p0--10p0-|----7-6-7-9-10-9-10-12/14-14~~|
|-----0------0------0------0-|--8----8-----|--8---------------------------|
|----0------2------4------7--|-9----9------|9-----------------------------|
|---2------4------5------9---|-------------|------------------------------|
|----------------------------|-------------|------------------------------|
|----------------------------|-------------|------------------------------|

|----------------------------|-------------|------------------------------|
|----------------------------|-------------|------------------------------|
|----------------------------|-------------|------------------------------|
|----------------------------|-------------|------------------------------|
|----------------------------|-------------|------------------------------|
|----------------------------|-------------|------------------------------|


***6 MEASURES OF REST AND PERCUSSION FOR ALL***


|------9----------------|----------------|------X-----------------|
|-----7-----------------|----------------|-----10-----------------|
|----7------------------|----------------|----9-------------------|
|---7-------------------|----------------|---11-------------------|
|--9--------------------|----------------|--12--------------------|
|-7---------------------|----------------|-9----------------------|

|-----2h3p2---2-2---2---|----------------|------------------------|
|-----------5-----5---3-|-5p3---3--------|--------3p2---2--2------|
|---4-------------------|-----4---2/4~~~-|----2-4-----4------2--4-|
|-----------------------|----------------|----------------------- |
|-----------------------|----------------|------------------------|
|-----------------------|----------------|------------------------|

|-----------------------|----------------|------------------------|
|-----------------------|----------------|------------------------|
|-----------------------|----------------|------------------------|
|-----------------------|----------------|------------------------|
|-----------------------|----------------|------------------------|
|-----------------------|----------------|------------------------|


|------------------------------|------7---------------------------|
|------------------------------|-----8----------------------------|
|------------------------------|----9-----------------------------|
|------------------------------|---9------------------------------|
|------------------------------|--7-------------------------------|
|------------------------------|-7--------------------------------|

|-----------------7--9-10-9-10-|-12\----------0--------0--------0-|
|-----5-8--7-7-8h10------------|------------0--------0--------0---|
|-6-7--------------------------|----------0--------2--------4-----|
|------------------------------|-------2--------4--------5--------|
|------------------------------|----------------------------------|
|------------------------------|----------------------------------|

|------------------------------|----------------------------------|
|------------------------------|----------------------------------|
|------------------------------|----------------------------------|
|------------------------------|----------------------------------|
|------------------------------|----------------------------------|
|------------------------------|----------------------------------|


|---------------------------|------2-----------------------------|
|---------------------------|-----2------------------------------|
|---------------------------|----3-------------------------------|
|---------------------------|---2--------------------------------|
|---------------------------|--4---------------------------------|
|---------------------------|-2----------------------------------|

|-------0-7p0---10-12-10----|---9-9h10p9\7-7h9p7\6--3-2-2--2-3-2-|
|-----0-------0----------12-|------------------------------------|
|---7-----------------------|------------------------------------|
|-9-------------------------|------------------------------------|
|---------------------------|------------------------------------|
|---------------------------|------------------------------------|

|---------------------------|------------------------------------|
|---------------------------|------------------------------------|
|---------------------------|------------------------------------|
|---------------------------|------------------------------------|
|---------------------------|------------------------------------|
|---------------------------|------------------------------------|


|--------------|
|--------------|
|--------------|
|--------------|
|--------------|
|--------------|

|-0-2----------|
|-----3--2-----|
|----------4-3-|
|--------------|
|--------------|
|--------------|

|--------------|
|--------------|
|--------------|
|--------------|
|--------------|
|--------------|


***12-STRING CAPOED ON 7TH FRET UNTIL END***
|-----------0-----|-------2-----|-------0-------|-----------0-|
|-------0---------|-----0---2-4-|-----3-----3---|-------0-----|
|-----0---0---0-2-|---2---------|---2-----2---2-|-----0---0---|
|---2-------------|-1-----------|-0-------------|---2---------|
|-----------------|-------------|---------------|-4-----------|
|-0---------------|-------------|---------------|-------------|

|-2#--------------|-2#----------|-0#------------|-0#----------|
|-3#--------------|-2#----------|-2#------------|-0#----------|
|-4#--------------|-3#----------|-2#------------|-1#----------|
|-4#--------------|-4#----------|-2#------------|-2#----------|
|-2#--------------|-4#----------|-0#------------|-2#----------|
|-2#--------------|-2#----------|-0#------------|-0#----------|

|-2#--------------|-2#----------|-0#------------|-0#----------|
|-3#--------------|-2#----------|-2#------------|-0#----------|
|-4#--------------|-3#----------|-2#------------|-1#----------|
|-4#--------------|-4#----------|-2#------------|-2#----------|
|-2#--------------|-4#----------|-0#------------|-2#----------|
|-2#--------------|-2#----------|-0#------------|-0#----------|


|-----------0-------|-------3-------|-----------0---|-----------2-|
|-------1-----------|-----0-----0---|-------1-------|-------0-----|
|-----0-----------0-|---0-----0-----|-----0---0-----|---0-2---2---|
|---2-----2---0h2---|---------------|---2-----------|-------------|
|-3-----------------|-2-------------|-0-------------|-2-----------|
|-------------------|-------------3-|-------------0-|-------------|

|-3#----------------|-2#------------|-0#------------|-2#----------|
|-0#----------------|-3#------------|-0#------------|-2#----------|
|-0#----------------|-2#------------|-0#------------|-3#----------|
|-0#----------------|-0#------------|-2#------------|-4#----------|
|-2#----------------|-0#------------|-2#------------|-4#----------|
|-3#----------------|-2#------------|-0#------------|-2#----------|

|-3#----------------|-2#------------|-0#------------|-2#----------|
|-0#----------------|-3#------------|-0#------------|-2#----------|
|-0#----------------|-2#------------|-0#------------|-3#----------|
|-0#----------------|-0#------------|-2#------------|-4#----------|
|-2#----------------|-0#------------|-2#------------|-4#----------|
|-3#----------------|-2#------------|-0#------------|-2#----------|


|-----------0-----|-------2-----|-------0-------|-----------0-|
|-------0---------|-----0---2-4-|-----3-----3---|-------0-----|
|-----0---0---0-2-|---2---------|---2-----2---2-|-----0---0---|
|---2-------------|-1-----------|-0-------------|---2---------|
|-----------------|-------------|---------------|-4-----------|
|-0---------------|-------------|---------------|-------------|

|-----------------|-------------|---------------|-------------|
|-----------------|-------------|---------------|-------------|
|-----------------|-------------|---------------|-------------|
|------0----2--4--|-2--0h2p0----|---------------|-------------|
|-----------------|-----------4-|-4~~~---5---7\-|2~~~~--------|
|-----------------|-------------|---------------|-------------|

|-2#--------------|-2#----------|-0#------------|-0#----------|
|-3#--------------|-2#----------|-2#------------|-0#----------|
|-4#--------------|-3#----------|-2#------------|-1#----------|
|-4#--------------|-4#----------|-2#------------|-2#----------|
|-2#--------------|-4#----------|-0#------------|-2#----------|
|-2#--------------|-2#----------|-0#------------|-0#----------|


|-----------0-------|-------3-------|-----------0---|-----------2-|
|-------1-----------|-----0-----0---|-------1-------|-------0-----|
|-----0-----------0-|---0-----0-----|-----0---0-----|---0-2---2---|
|---2-----2---0h2---|---------------|---2-----------|-------------|
|-3-----------------|-2-------------|-0-------------|-2-----------|
|-------------------|-------------3-|-------------0-|-------------|

|-------------------|---------------|---------------|-------------|
|-------------------|------2p4--0---|-2----4---5----|-4h5p4p2-4---|
|-2----4---------5\-|0--------------|---------------|-------------|
|-------------------|---------------|---------------|-------------|
|-------------------|---------------|---------------|-------------|
|-------------------|---------------|---------------|-------------|

|-3#----------------|-2#------------|-0#------------|-2#----------|
|-0#----------------|-3#------------|-0#------------|-2#----------|
|-0#----------------|-2#------------|-0#------------|-3#----------|
|-0#----------------|-0#------------|-2#------------|-4#----------|
|-2#----------------|-0#------------|-2#------------|-4#----------|
|-3#----------------|-2#------------|-0#------------|-2#----------|


|-----------0-----|-------2-----|-------0-------|-----------0-|
|-------0---------|-----0---2-4-|-----3-----3---|-------0-----|
|-----0---0---0-2-|---2---------|---2-----2---2-|-----0---0---|
|---2-------------|-1-----------|-0-------------|---2---------|
|-----------------|-------------|---------------|-4-----------|
|-0---------------|-------------|---------------|-------------|

|-2#--------------|-2#----------|-0#------------|-0#----------|
|-3#--------------|-2#----------|-2#------------|-0#----------|
|-4#--------------|-3#----------|-2#------------|-1#----------|
|-4#--------------|-4#----------|-2#------------|-2#----------|
|-2#--------------|-4#----------|-0#------------|-2#----------|
|-2#--------------|-2#----------|-0#------------|-0#----------|

|-2#--------------|-2#----------|-0#------------|-0#----------|
|-3#--------------|-2#----------|-2#------------|-0#----------|
|-4#--------------|-3#----------|-2#------------|-1#----------|
|-4#--------------|-4#----------|-2#------------|-2#----------|
|-2#--------------|-4#----------|-0#------------|-2#----------|
|-2#--------------|-2#----------|-0#------------|-0#----------|


|-----------0-------|-------3-------|-----------0---|-----------2-|
|-------1-----------|-----0-----0---|-------1-------|-------0-----|
|-----0-----------0-|---0-----0-----|-----0---0-----|---0-2---2---|
|---2-----2---0h2---|---------------|---2-----------|-------------|
|-3-----------------|-2-------------|-0-------------|-2-----------|
|-------------------|-------------3-|-------------0-|-------------|

|-3#----------------|-2#------------|-0#------------|-2#----------|
|-0#----------------|-3#------------|-0#------------|-2#----------|
|-0#----------------|-2#------------|-0#------------|-3#----------|
|-0#----------------|-0#------------|-2#------------|-4#----------|
|-2#----------------|-0#------------|-2#------------|-4#----------|
|-3#----------------|-2#------------|-0#------------|-2#----------|

|-3#----------------|-2#------------|-0#------------|-2#----------|
|-0#----------------|-3#------------|-0#------------|-2#----------|
|-0#----------------|-2#------------|-0#------------|-3#----------|
|-0#----------------|-0#------------|-2#------------|-4#----------|
|-2#----------------|-0#------------|-2#------------|-4#----------|
|-3#----------------|-2#------------|-0#------------|-2#----------|


|-----------0-----|-------2-----|-------0-------|-----------0-|
|-------0---------|-----0---2-4-|-----3-----3---|-------0-----|
|-----0---0---0-2-|---2---------|---2-----2---2-|-----0---0---|
|---2-------------|-1-----------|-0-------------|---2---------|
|-----------------|-------------|---------------|-4-----------|
|-0---------------|-------------|---------------|-------------|

|-2#--------------|-2#----------|-0#------------|-0#----------|
|-3#--------------|-2#----------|-2#------------|-0#----------|
|-4#--------------|-3#----------|-2#------------|-1#----------|
|-4#--------------|-4#----------|-2#------------|-2#----------|
|-2#--------------|-4#----------|-0#------------|-2#----------|
|-2#--------------|-2#----------|-0#------------|-0#----------|

|-2#--------------|-2#----------|-0#------------|-0#----------|
|-3#--------------|-2#----------|-2#------------|-0#----------|
|-4#--------------|-3#----------|-2#------------|-1#----------|
|-4#--------------|-4#----------|-2#------------|-2#----------|
|-2#--------------|-4#----------|-0#------------|-2#----------|
|-2#--------------|-2#----------|-0#------------|-0#----------|


|-----------0-------|-------3-------|-----------0---|-----------2-|
|-------1-----------|-----0-----0---|-------1-------|-------0-----|
|-----0-----------0-|---0-----0-----|-----0---0-----|---0-2---2---|
|---2-----2---0h2---|---------------|---2-----------|-------------|
|-3-----------------|-2-------------|-0-------------|-2-----------|
|-------------------|-------------3-|-------------0-|-------------|

|-3#----------------|-2#------------|-0#------------|-2#----------|
|-0#----------------|-3#------------|-0#------------|-2#----------|
|-0#----------------|-2#------------|-0#------------|-3#----------|
|-0#----------------|-0#------------|-2#------------|-4#----------|
|-2#----------------|-0#------------|-2#------------|-4#----1-2-4-|
|-3#----------------|-2#------------|-0#------------|-2#--2-------|

|-3#----------------|-2#------------|-0#------------|-2#----------|
|-0#----------------|-3#------------|-0#------------|-2#----------|
|-0#----------------|-2#------------|-0#------------|-3#----------|
|-0#----------------|-0#------------|-2#------------|-4#----------|
|-2#----------------|-0#------------|-2#------------|-4#----------|
|-3#----------------|-2#------------|-0#------------|-2#----------|


|-2#----------------|-3#-------------|-2#----------|-0#-------------|
|-1#----------------|-0#-------------|-0#----------|-0#-------------|
|-0#----------------|-0#-------------|-2#----------|-0#-------------|
|-2#----------------|-0#-------------|-0#----------|-2#-------------|
|-3#----------------|-2#-------------|-2#----------|-2#-------------|
|-0#----------------|-3#-------------|-------------|-0#-------------|

|-------------------|----------------|-------------|----------------|
|-------------------|-3-3-3-3--------|-------------|----------------|
|-0-(0)-------------|-2-2-4-2-/6-4-2-|-------------|-0-(0)----------|
|-0-(0)-------------|---------/7-5-4-|-------0-2-4-|----------------|
|-------------------|----------------|---2-4-------|----------------|
|-------------------|----------------|-------------|----------------|

|-3#----------------|-2#-------------|-2#----------|-2#-------------|
|-0#----------------|-3#-------------|-2#----------|-3#-------------|
|-0#----------------|-2#-------------|-3#----------|-4#-------------|
|-0#----------------|-0#-------------|-4#----------|-4#-------------|
|-2#----------------|-0#-------------|-4#----------|-2#-------------|
|-3#----------------|-2#-------------|-2#----------|-2#-------------|


|-2#----------------|-3#-------------------|-2#----------|-0#----------|
|-1#----------------|-0#-------------------|-0#----------|-0#----------|
|-0#----------------|-0#-------------------|-2#----------|-0#----------|
|-2#----------------|-0#-------------------|-0#----------|-2#----------|
|-3#----------------|-2#-------------------|-2#----------|-2#----------|
|-0#----------------|-3#-------------------|-------------|-0#----------|

|-------------------|-9--9-\7-7-7-7\5-5-5\-|-------------|-2#----------|
|-------------------|-10-10\8-8-8-8\7-7-7\-|-------------|-2#----------|
|-------------------|----------------------|-------------|-3#----------|
|-------------------|----------------------|-------------|-4#----------|
|-------------------|----------------------|-------------|-4#----------|
|-------------------|----------------------|-------------|-2#----------|

|-3#----------------|-2#-------------------|-0#----------|-2#----------|
|-0#----------------|-3#-------------------|-0#----------|-2#----------|
|-0#----------------|-2#-------------------|-0#----------|-3#----------|
|-0#----------------|-0#-------------------|-2#----------|-4#----------|
|-2#----------------|-0#-------------------|-2#----------|-4#----------|
|-3#----------------|-2#-------------------|-0#----------|-2#----------|


|-----------0-----|-------2-----|-------0-------|-----------0-|
|-------0---------|-----0---2-4-|-----3-----3---|-------0-----|
|-----0---0---0-2-|---2---------|---2-----2---2-|-----0---0---|
|---2-------------|-1-----------|-0-------------|---2---------|
|-----------------|-------------|---------------|-4-----------|
|-0---------------|-------------|---------------|-------------|

|-2#--------------|-2#----------|-0#------------|-0#----------|
|-3#--------------|-2#----------|-2#------------|-0#----------|
|-4#--------------|-3#----------|-2#------------|-1#----------|
|-4#--------------|-4#----------|-2#------------|-2#----------|
|-2#--------------|-4#----------|-0#------------|-2#----------|
|-2#--------------|-2#----------|-0#------------|-0#----------|

|-2#--------------|-2#----------|-0#------------|-0#----------|
|-3#--------------|-2#----------|-2#------------|-0#----------|
|-4#--------------|-3#----------|-2#------------|-1#----------|
|-4#--------------|-4#----------|-2#------------|-2#----------|
|-2#--------------|-4#----------|-0#------------|-2#----------|
|-2#--------------|-2#----------|-0#------------|-0#----------|


|-----------0-------|-------3-------|-----------0---|-----------2-|
|-------1-----------|-----0-----0---|-------1-------|-------0-----|
|-----0-----------0-|---0-----0-----|-----0---0-----|---0-2---2---|
|---2-----2---0h2---|---------------|---2-----------|-------------|
|-3-----------------|-2-------------|-0-------------|-2-----------|
|-------------------|-------------3-|-------------0-|-------------|

|-3#----------------|-2#------------|-0#------------|-2#----------|
|-0#----------------|-3#------------|-0#------------|-2#----------|
|-0#----------------|-2#------------|-0#------------|-3#----------|
|-0#----------------|-0#------------|-2#------------|-4#----------|
|-2#----------------|-0#------------|-2#------------|-4#----------|
|-3#----------------|-2#------------|-0#------------|-2#----------|

|-3#----------------|-2#------------|-0#------------|-2#----------|
|-0#----------------|-3#------------|-0#------------|-2#----------|
|-0#----------------|-2#------------|-0#------------|-3#----------|
|-0#----------------|-0#------------|-2#------------|-4#----------|
|-2#----------------|-0#------------|-2#------------|-4#----------|
|-3#----------------|-2#------------|-0#------------|-2#----------|


|-----------0-----|-------2-----|-------0-------|-----------0-|
|-------0---------|-----0---2-4-|-----3-----3---|-------0-----|
|-----0---0---0-2-|---2---------|---2-----2---2-|-----0---0---|
|---2-------------|-1-----------|-0-------------|---2---------|
|-----------------|-------------|---------------|-4-----------|
|-0---------------|-------------|---------------|-------------|

|-2#--------------|-2#----------|-0#------------|-0#----------|
|-3#--------------|-2#----------|-2#------------|-0#----------|
|-4#--------------|-3#----------|-2#------------|-1#----------|
|-4#--------------|-4#----------|-2#------------|-2#----------|
|-2#--------------|-4#----------|-0#------------|-2#----------|
|-2#--------------|-2#----------|-0#------------|-0#----------|

|-2#--------------|-2#----------|-0#------------|-0#----------|
|-3#--------------|-2#----------|-2#------------|-0#----------|
|-4#--------------|-3#----------|-2#------------|-1#----------|
|-4#--------------|-4#----------|-2#------------|-2#----------|
|-2#--------------|-4#----------|-0#------------|-2#----------|
|-2#--------------|-2#----------|-0#------------|-0#----------|

[ Tab from: http://www.guitartabs.cc/tabs/e/eagles/hotel_california_live_tab.html ]
|-----------0-------|-------3-------|-----------0---|-----------2-|
|-------1-----------|-----0-----0---|-------1-------|-------0-----|
|-----0-----------0-|---0-----0-----|-----0---0-----|---0-2---2---|
|---2-----2---0h2---|---------------|---2-----------|-------------|
|-3-----------------|-2-------------|-0-------------|-2-----------|
|-------------------|-------------3-|-------------0-|-------------|

|-3#----------------|-2#------------|-0#------------|-2#----------|
|-0#----------------|-3#------------|-0#------------|-2#----------|
|-0#----------------|-2#------------|-0#------------|-3#----------|
|-0#----------------|-0#------------|-2#------------|-4#----------|
|-2#----------------|-0#------------|-2#------------|-4#-----1-2-4|
|-3#----------------|-2#------------|-0#------------|-2#---2------|

|-3#----------------|-2#------------|-0#------------|-2#----------|
|-0#----------------|-3#------------|-0#------------|-2#----------|
|-0#----------------|-2#------------|-0#------------|-3#----------|
|-0#----------------|-0#------------|-2#------------|-4#----------|
|-2#----------------|-0#------------|-2#------------|-4#----------|
|-3#----------------|-2#------------|-0#------------|-2#----------|


|-2#----------------|-3#------------------|-2#----------|-0#-------------|
|-1#----------------|-0#------------------|-0#----------|-0#-------------|
|-0#----------------|-0#------------------|-2#----------|-0#-------------|
|-2#----------------|-0#------------------|-0#----------|-2#-------------|
|-3#----------------|-2#------------------|-2#----------|-2#-------------|
|-0#----------------|-3#------------------|-------------|-0#-------------|

|-------------------|-9--9--9-\7-7-7\5-5\-|-------------|----------------|
|-------------------|-10-10-10\8-8-8\7-5\-|-------------|----------------|
|-0-(0)-------------|---------------------|-------------|-0-(0)----------|
|-0-(0)-------------|---------------------|-------0-2-4-|----------------|
|-------------------|---------------------|---2-4-------|----------------|
|-------------------|---------------------|-------------|----------------|

|-3#----------------|-2#------------------|-2#----------|-2#-------------|
|-0#----------------|-3#------------------|-2#----------|-3#-------------|
|-0#----------------|-2#------------------|-3#----------|-4#-------------|
|-0#----------------|-0#------------------|-4#----------|-4#-------------|
|-2#----------------|-0#------------------|-4#----------|-2#-------------|
|-3#----------------|-2#------------------|-2#----------|-2#-------------|


|-2#----------------|-3#---------------|-2#----------|-0#----------|
|-1#----------------|-0#---------------|-0#----------|-0#----------|
|-0#----------------|-0#---------------|-2#----------|-0#----------|
|-2#----------------|-0#---------------|-0#----------|-2#----------|
|-3#----------------|-2#---------------|-2#----------|-2#----------|
|-0#----------------|-3#---------------|-------------|-0#----------|

|-------------------|-7-7-7\5-5-5\2----|-------------|-2#----------|
|-------------------|-8-8-8\7-7-7\3-3\-|-------------|-2#----------|
|-------------------|---------------2\-|-------------|-3#----------|
|-------------------|------------------|-------------|-4#----------|
|-------------------|------------------|-------------|-4#----------|
|-------------------|------------------|-------------|-2#----------|

|-3#----------------|-2#---------------|-0#----------|-2#----------|
|-0#----------------|-3#---------------|-0#----------|-2#----------|
|-0#----------------|-2#---------------|-0#----------|-3#----------|
|-0#----------------|-0#---------------|-2#----------|-4#----------|
|-2#----------------|-0#---------------|-2#----------|-4#----------|
|-3#----------------|-2#---------------|-0#----------|-2#----------|


|-----------0-----|-------2-----|-------0-------|-----------0-|
|-------0---------|-----0---2-4-|-----3-----3---|-------0-----|
|-----0---0---0-2-|---2---------|---2-----2---2-|-----0---0---|
|---2-------------|-1-----------|-0-------------|---2---------|
|-----------------|-------------|---------------|-4-----------|
|-0---------------|-------------|---------------|-------------|

|-2---------------|-2-----------|-0-------------|-0-----------|
|-3---------------|-2-----------|-2-------------|-0-----------|
|-4---------------|-3-----------|-2-------------|-1-----------|
|-4---------------|-4-----------|-2-------------|-2-----------|
|-2---------------|-4-----------|-0-------------|-2-----------|
|-2---------------|-2-----------|-0-------------|-0-----------|

|-2---------------|-2-----------|-0-------------|-0-----------|
|-3---------------|-2-----------|-2-------------|-0-----------|
|-4---------------|-3-----------|-2-------------|-1-----------|
|-4---------------|-4-----------|-2-------------|-2-----------|
|-2---------------|-4-----------|-0-------------|-2-----------|
|-2---------------|-2-----------|-0-------------|-0-----------|


|-----------0-------|-------3-------|-----------0---|-----------2-|
|-------1-----------|-----0-----0---|-------1-------|-------0-----|
|-----0-----------0-|---0-----0-----|-----0---0-----|---0-2---2---|
|---2-----2---0h2---|---------------|---2-----------|-------------|
|-3-----------------|-2-------------|-0-------------|-2-----------|
|-------------------|-------------3-|-------------0-|-------------|

|-3-----------------|-2-------------|-0-------------|-2-----------|
|-0-----------------|-3-------------|-0-------------|-2-----------|
|-0-----------------|-2-------------|-0-------------|-3-----------|
|-0-----------------|-0-------------|-2-------------|-4-----------|
|-2-----------------|-0-------------|-2-------------|-4-----------|
|-3-----------------|-2-------------|-0-------------|-2-----------|

|-3-----------------|-2-------------|-0-------------|-2-----------|
|-0-----------------|-3-------------|-0-------------|-2-----------|
|-0-----------------|-2-------------|-0-------------|-3-----------|
|-0-----------------|-0-------------|-2-------------|-4-----------|
|-2-----------------|-0-------------|-2-------------|-4-----------|
|-3-----------------|-2-------------|-0-------------|-2-----------|


|-----------0-----|-------2-----|-------0-------|-----------0-|
|-------0---------|-----0---2-4-|-----3-----3---|-------0-----|
|-----0---0---0-2-|---2---------|---2-----2---2-|-----0---0---|
|---2-------------|-1-----------|-0-------------|---2---------|
|-----------------|-------------|---------------|-4-----------|
|-0---------------|-------------|---------------|-------------|

|-2#--------------|-2#----------|-0#------------|-0#----------|
|-3#--------------|-2#----------|-2#------------|-0#----------|
|-4#--------------|-3#----------|-2#------------|-1#----------|
|-4#--------------|-4#----------|-2#------------|-2#----------|
|-2#--------------|-4#----------|-0#------------|-2#----------|
|-2#--------------|-2#----------|-0#------------|-0#----------|

|-2#--------------|-2#----------|-0#------------|-0#----------|
|-3#--------------|-2#----------|-2#------------|-0#----------|
|-4#--------------|-3#----------|-2#------------|-1#----------|
|-4#--------------|-4#----------|-2#------------|-2#----------|
|-2#--------------|-4#----------|-0#------------|-2#----------|
|-2#--------------|-2#----------|-0#------------|-0#----------|


|-----------0-------|-------3-------|-----------0---|-----------2-|
|-------1-----------|-----0-----0---|-------1-------|-------0-----|
|-----0-----------0-|---0-----0-----|-----0---0-----|---0-2---2---|
|---2-----2---0h2---|---------------|---2-----------|-------------|
|-3-----------------|-2-------------|-0-------------|-2-----------|
|-------------------|-------------3-|-------------0-|-------------|

|-3#----------------|-2#------------|-0#------------|-2#----------|
|-0#----------------|-3#------------|-0#------------|-2#----------|
|-0#----------------|-2#------------|-0#------------|-3#----------|
|-0#----------------|-0#------------|-2#------------|-4#----------|
|-2#----------------|-0#------------|-2#------------|-4#----------|
|-3#----------------|-2#------------|-0#------------|-2#----------|

|-3#----------------|-2#------------|-0#------------|-2#----------|
|-0#----------------|-3#------------|-0#------------|-2#----------|
|-0#----------------|-2#------------|-0#------------|-3#--------9-|
|-0#----------------|-0#------------|-2#------------|-4#----8-6---|
|-2#----------------|-0#------------|-2#------------|-4#----------|
|-3#----------------|-2#------------|-0#------------|-2#----------|


|-----------0---------|-------2-------|-----------------0-----------------|
|-------0-------------|-----0---2-4---|--------------3------------3-------|
|-----0---0---0-2-----|---2-----------|---------2-----------2---------2---|
|---2-----------------|-1-------------|----0------------------------------|
|---------------------|---------------|-----------------------------------|
|-0-------------------|---------------|-----------------------------------|

|-2#------------------|-2#------------|-0#--------------------------------|
|-3#------------------|-2#------------|-2#--------------------------------|
|-4#------------------|-3#------------|-2#--------------------------------|
|-4#------------------|-4#------------|-2#--------------------------------|
|-2#------------------|-4#------------|-0#--------------------------------|
|-2#------------------|-2#------------|-0#--------------------------------|

|---------------------|-7-5-3-2--9-10-|-12-12-12-12~12-10-9----10-9-------|
|---------------------|---------------|---------------------12------12-10-|
|9--9-9-9-9\7-6-9-7-6-|-7-6-4-3-------|-----------------------------------|
|---------------------|---------------|-----------------------------------|
|---------------------|---------------|-----------------------------------|
|---------------------|---------------|-----------------------------------|


|-----------0-|
|-------0-----|
|-----0---0---|
|---2---------|
|-4-----------|
|-------------|

|-0#----------|
|-0#----------|
|-1#----------|
|-2#----------|
|-2#----------|
|-0#----------|

|-------------|
|-9-----------|
|---9---------|
|-----9-------|
|-------9h11--|
|------------2|


|--------------0-----------|-------3-------|-----------------0-----|
|---------1----------------|-----0-----0---|-----------1-----------|
|-------0--------------0---|---0-----0-----|--------0-----0--------|
|----2-------2----0h2------|---------------|-----2-----------------|
|-3------------------------|-2-------------|--0--------------------|
|--------------------------|-------------3-|--------------------0--|

|-3#-----------------------|-2#------------|-0#--------------------|
|-0#-----------------------|-3#------------|-0#--------------------|
|-0#-----------------------|-2#------------|-0#--------------------|
|-0#-----------------------|-0#------------|-2#--------------------|
|-2#-----------------------|-0#------------|-2#--------------------|
|-3#-----------------------|-2#------------|-0#--------------------|

|--------------------------|---------------|-0------0------0-----0-|
|--------------------------|---------------|--0------0------0----0-|
|-----------------------2/4|-2-------4-----|---0------0------0---0-|
|-----------2-0-4-2-5-4----|------------4--|----2------2------2----|
|---0-2-5-4----------------|---------------|-----------------------|
|-3------------------------|---------------|-----------------------|
                                           *roll w/pick hand finger*

|-----------2-|
|-------0-----|
|---0-2---2---|
|-------------|
|-2-----------|
|-------------|

|-----------------------
|-----------------------
|------------------9-11-
|-9h11p9\8-9-11-12------
|-----------------------
|-----------------------

|---2-----2-2-|
|----2------2-|
|-----3-------|
|------4----4-|
|-------4-----|
|-2------2----|


|------------0-----------------------------------------|
|-------0----------------------------------------------|
|-----0----0----0-2------------------------------------|
|---2--------------------------------------------------|
|------------------------------------------------------|
|-0----------------------------------------------------|

|------------------------------------------------------|
|------------------------------------------------------|
|11h12p11\9-11----9--11-11h12p11\9-9h11p9\7-7h9p7\6----|
|--------------12------------------------------------9-|
|------------------------------------------------------|
|------------------------------------------------------|

|-2#---------------------------------------------------|
|-3#---------------------------------------------------|
|-4#---------------------------------------------------|
|-4#---------------------------------------------------|
|-2#---------------------------------------------------|
|-2#---------------------------------------------------|


|------------2-----------------|
|---------0-----2--4-----------|
|-----2------------------------|
|--1---------------------------|
|------------------------------|
|------------------------------|

|---------------------14-------|
|-------12-14-12---11----------|
|---6-9------------------------|
|-8-----------------------12\7-|
|------------------------------|
|------------------------------|

|-2#---------------------------|
|-2#---------------------------|
|-3#---------------------------|
|-4#---------------------------|
|-4#---------------------------|
|-2#---------------------------|

|-------0---------------|-----------0------------------|
|-----3-----3-----------|-------0----------------------|
|---2-----2---2---------|-----0---0--------------------|
|-0---------------------|---2--------------------------|
|-----------------------|-4----------------------------|
|-----------------------|------------------------------|

|-----------------------|------------------------0-----|
|-7-7-7-5-5-5-----------|--3-3h5p3\2-2h3p2\0-----------|
|-------------7-7-6-4-2-|1-------------------2-1-------|
|-----------------------|--------------------------2-4-|
|-----------------------|------------------------------|
|-----------------------|------------------------------|

|-0#--------------------|-0#---------------------------|
|-2#--------------------|-0#---------------------------|
|-2#--------------------|-1#---------------------------|
|-2#--------------------|-2#---------------------------|
|-0#--------------------|-2#---------------------------|
|-0#--------------------|-0#---------------------------|


|-----------0---------------------|-------3-------------------------------|
|-------1-------------------------|-----0-----0---------------------------|
|-----0-----------0---------------|---0-----0-----------------------------|
|---2-----2---0h2-----------------|---------------------------------------|
|-3-------------------------------|-2-------------------------------------|
|---------------------------------|-------------3-------------------------|

|-------------------------------3-|-/5-5-5-5/7-5-3/5----------------------|
|---------------------------3-5---|-/7-7-7-7/8-7-5/7-----------------0h2h3|
|-----------2-4-4h6p4\3-4-6-------|--------------------------0h1h2h3------|
|-5h7p5\4-5-----------------------|------------------0h2h3h4--------------|
|---------------------------------|---------------------------------------|
|---------------------------------|---------------------------------------|

|-3#------------------------------|-2#------------------------------------|
|-0#------------------------------|-3#------------------------------------|
|-0#------------------------------|-2#------------------------------------|
|-0#------------------------------|-0#------------------------------------|
|-2#------------------------------|-0#------------------------------------|
|-3#------------------------------|-2#------------------------------------|

|-----------0------------------------|
|-------1----------------------------|
|-----0---0--------------------------|
|---2--------------------------------|
|-0----------------------------------|
|-------------0----------------------|

|-0-----3p0---7p3-0-10p7----12p10----|
|---0-------0------------11-------12\|
|-----0------------------------------|
|------------------------------------|
|------------------------------------|
|------------------------------------|

|-0#---------------------------------|
|-0#---------------------------------|
|-0#---------------------------------|
|-2#---------------------------------|
|-2#---------------------------------|
|-0#---------------------------------|


|-----------2---------------------------|
|-------0-------------------------------|
|---0-2---2-----------------------------|
|---------------------------------------|
|-2-------------------------------------|
|---------------------------------------|

|-2-2h3p2\0---0h2-0-------------------0-|
|-----------3-------3-2h3p2p0-2-3p2-3---|
|---------------------------------------|
|---------------------------------------|
|---------------------------------------|
|---------------------------------------|

|-2#----------------------------7p6-7-9-|
|-2#------------------------------------|
|-3#------------------------------------|
|-4#------------------------------------|
|-4#------------------------------------|
|-2#------------------------------------|


|-----------0-------------------|-------2------------|
|-------0-----------------------|-----0---2-4--------|
|-----0---0---0-2---------------|---2----------------|
|---2---------------------------|-1------------------|
|-------------------------------|--------------------|
|-0-----------------------------|--------------------|

|-2-----2-----2-----2-----2-----|-0-----0-----0---/6-|
|---3-----3-----3-----3-----3---|---2-----2-----2----|
|-----4-----4-----4-----4-----4-|-----3-----3--------|
|-------------------------------|--------------------|
|-------------------------------|--------------------|
|-------------------------------|--------------------|

|-10p7--10p7--10p7--10p7--10p7--|-9p6---9p6---9p6/14-|
|-----7-----7-----7-----7-----7-|-----7-----7--------|
|-------------------------------|--------------------|
|-------------------------------|--------------------|
|-------------------------------|--------------------|
|-------------------------------|--------------------|


|-------0-------------------|
|-----3-----3---------------|
|---2-----2---2-------------|
|-0-------------------------|
|---------------------------|
|---------------------------|

|-0----0----0----0----0-----|
|---2----2----2----2----2---|
|-----2----2----2----2----2-|
|---------------------------|
|---------------------------|
|---------------------------|

|-9p5--9p5--9p5--9p5--9p5---|
|----5----5----5----5-----5-|
|---------------------------|
|---------------------------|
|---------------------------|
|---------------------------|


|-----------0-------|-----------0-------------------|-------3------------|
|-------0-----------|-------1-----------------------|-----0-----0--------|
|-----0---0---------|-----0-----------0-------------|---0-----0----------|
|---2---------------|---2-----2---0h2---------------|--------------------|
|-4-----------------|-3-----------------------------|-2------------------|
|-------------------|-------------------------------|-------------3------|

|----------------/4-|-------------------------------|--------------------|
|-3p0---3p0---3p0---|-3p0---3p0---3p0---3p0---3p0---|-3-----3-----3---/7-|
|-----1-----1-------|-----0-----0-----0-----0-----0-|---2-----2-----2----|
|-------------------|-------------------------------|-----4-----4--------|
|-------------------|-------------------------------|--------------------|
|-------------------|-------------------------------|--------------------|

|-7p4---7p4---7p4/12|-7p3---7p3---7p3---7p3---7p3---|-5p2---5p2---5-/10--|
|----5----5---------|-----3-----3-----3-----3-----3-|-----3-----3--------|
|-------------------|-------------------------------|--------------------|
|-------------------|-------------------------------|--------------------|
|-------------------|-------------------------------|--------------------|
|-------------------|-------------------------------|--------------------|


|-----------0---------------------|-----------2-------------------|-0-|
|-------1-------------------------|-------0-----------------------|-0-|
|-----0---0-----------------------|---0-2---2---------------------|-0-|
|---2-----------------------------|-------------------------------|-2-|
|-0-------------------------------|-2-----------------------------|-2-|
|-------------0-------------------|-------------------------------|-0-|

|---------------------------------|-----------0----2--------------|-2-|
|-0----0----0----0----0-----------|-2----3------2----3---3p2--0---|-3-|
|---0----0----0----0----0---0h3h4-|---3----4------3----4----3-----|-4-|
|-----2----2----2----2----2-------|-----4----4--------------------|-4-|
|---------------------------------|-------------------------------|-2-|
|---------------------------------|-------------------------------|-2-|

|-3p0--3p0--3p0--3p0--3p0---------|-0----2----6----7--------------|-7-|
|----0----0----0----0----0----2h3-|---2----3----7----7-------7-11-|-7-|
|---------------------------------|-----3----4----9----7-7-9------|-7-|
|---------------------------------|-------------------------------|-9-|
|---------------------------------|-------------------------------|-9-|
|---------------------------------|-------------------------------|-7-|


                                        #---------------#
                                        |   ---KEY---   |
                                        |/   Slide up   |
                                        |\   Slide down |
                                        |~   Vibrato    |
                                        |#   Strum      |
                                        |p   Pluck off  |
                                        |h   Hammer on  |
                                        |(0) Let ring   |
                                        |X   Don't play |
                                        #---------------#
Comments