Eagles - Get Over It Chords & Tabs

 

Get Over It Chords & Tabs

Eagles Chords & Tabs

Version: 1 Type: Tab 0 ratings
1 star 2 stars 3 stars 4 stars 5 stars
comments

Get Over It Tab

   
The Eagles
Get Over It
Tabber: Unknown



Intro:
e:----------------------------|------------------------|
B:----------------------------|------------------------|
G:---------------10^--10^-----|------------------------|
D:--------10--12--------------|-12v---------(12)/------|
A:-/12------------------------|------------------------|
E:----------------------------|------------------------|


e:----------------------------------------------|------------------------|
B:----------------------------------------------|------------------------|
G:-----10-12-12^r(12)^r(12)^r(12)^--------10-12-|------------------------|
D:-/12------------------------------------------|-12v--------(12)--------|
A:----------------------------------------------|------------------------|
E:----------------------------------------------|------------------------|

                            Start D5
e:------------------------|----------------|-----------------|
B:------------------------|----------------|-/15v------------|
G:------10----------------|----------------|-/14v------------|
D:---------12-10----------|----------------|-----------------|
A:---------------11-10----|----------------|-----------------|
E:---------------------12-|-10-------------|-----------------|

e:-----------------|------------------|-----------------|-----------------|
B:-----------------|-/15--------------|-----------------|-/15-------------|
G:-----------------|-/14--------------|-----------------|-/14-------------|
D:-----------------|------------------|-----------------|-----------------|
A:-----------------|------------------|-----------------|-----------------|
E:-----------------|------------------|-----------------|-----------------|



Verse 1:
      D
                                       Turn on the tube ...
e:-----------------|-----------------|-----------------|-----------------|
B:-----------------|-----------------|-----------------|-----------------|
G:-----------------|-14/-------------|---7---5-7---5-7-|-----5---5-7-----|
D:-----------------|-12/-------------|---7---7-7---7-7-|-----7---7-7-----|
A:-----------------|-----------------|-----------------|-----------------|
E:-----------------|-----------------|-----------------|-----------------|

 
e:-----------------|-----------------|-----------------|-----------------|
B:-----------------|-----------------|-----------------|-----------------|
G:---7---5-7---5-7-|-----5---5-7-----|---7---5-7---5-7-|-----5---5-7-----|
D:---7---7-7---7-7-|-----7---7-7-----|---7---7-7---7-7-|-----7---7-7-----|
A:-----------------|-----------------|-----------------|-----------------|
E:-----------------|-----------------|-----------------|-----------------|

                                       G  A
   
e:-----------------|-----------------|---3-----3-------|---3-----3-------|---5-----5-----5-|
B:-----------------|-----------------|---3-----3-------|---3-----3-------|---5-----5-----5-|
G:---7---5-7---5-7-|-----5---5-7-----|---4-----4-------|---4-----4-------|---6-----6-----6-|
D:---7---7-7---7-7-|-----7---7-7-----|-----------------|-----------------|-----------------|
A:-----------------|-----------------|-----------------|-----------------|-----------------|
E:-----------------|-----------------|-----------------|-----------------|-----------------|



Chorus:
D F G
Get over it ...



Solo 1:
e:-------------------------|-----------------|
B:-b10rv-------------------|-----------------|
G:-b10rv--------10-12------|-----10b---------|
D:--------------------12---|-----------------|
A:-------------------------|-----------------|
E:-------------------------|-----------------|

e:---------------------|-----------------|-----------------------|
B:--------13--------13-|-----------------|-----------------------|
G:-12b-12----12b-12----|-12b-------------|----12-10----12-10-----|
D:---------------------|-----------------|-12-------12-----------|
A:---------------------|-----------------|-----------------------|
E:---------------------|-----------------|-----------------------|

e:------------------------|----------------------|-----------------|
B:------------------------|-!---!--!-------------|-----------------|
G:----12-10----12-10---12-|-12b-12-10-!--!--!----|-!---------------|
D:-12-------12------------|-----------12-10-12---|-12------(12)/---|
A:------------------------|----------------------|-----------------|
E:------------------------|----------------------|-----------------|



Verse 2: (rhythm like verse 1)




Chorus:
D F G
Get over it ...



Solo 2:
e:-----------------|-----------------|-----------------|-----------------|
B:-----/12---------|-----------------|-----10b---------|-----------------|
G:---------12-10---|-12v-------------|---------12p-10--|-12v-------------|
D:-----------------|-----------------|-----------------|-----------------|
A:-----------------|-----------------|-----------------|-----------------|
E:-----------------|-----------------|-----------------|-----------------|
[ Tab from: http://www.guitartabs.cc/tabs/e/eagles/get_over_it_tab.html ]
e:----------------------|-----------------|---------10-------------|-----------------|
B:-----12b--12br(12)----|-----------------|------------13p11p10-13-|-----------------|
G:-------------------12-|-----------------|------------------------|-----------------|
D:----------------------|-----------------|------------------------|-----------------|
A:----------------------|-----------------|------------------------|-----------------|
E:----------------------|-----------------|------------------------|-----------------|

e:--------------------|--------------------------|-10---------------------|
B:-----13------13-----|-13-----13----13----13----|------------------------|
G:-12b-----12b----12b-|-----12----12----12----12-|----12br(12)------------|
D:--------------------|--------------------------|-------------12---------|
A:--------------------|--------------------------|------------------------|
E:--------------------|--------------------------|------------------------|

e:--------------------------|-10---------------b13rr(13)|
B:-----13-------13-------13-|---------------------------|
G:-12b-------12-------12----|----12br(12)---------------|
D:--------------------------|-------------12------------|
A:--------------------------|---------------------------|
E:--------------------------|---------------------------|

e:-10--------------10----|-13----12---------------|-----------------|
B:-----------10b------10-|----10----10b(10)/------|-5-7---5-7-------|
G:-----------------------|-------------(10)/------|-5-7---5-7-------|
D:-----------------------|------------------------|-----------------|
A:-----------------------|------------------------|-----------------|
E:-----------------------|------------------------|-----------------|



Bridge:
                It's like goin'...    
e:-----------------|-----------------|-----------------|-----------------|
B:-5-7---5-7-------|-5---------------|-----------------|-5-7-7---7-------|
G:-5-7---5-7-------|-5---------------|-----------------|-5/7-7---7/------|
D:-----------------|-5---------------|-----------------|-5/7-7---7/------|
A:-----------------|-----------------|-----------------|-----------------|
E:-----------------|-----------------|-----------------|-----------------|

           
e:-----------------|-----------------|-----------------|-----------------|
B:-----------------|-5---------------|-----------------|-----------------|
G:-----------------|-5---------------|-----------------|-----------------|
D:-----------------|-5---------------|-----------------|-----------------|
A:-----------------|-----------------|-----------------|-----------------|
E:-----------------|-----------------|-----------------|-3h5-5-5-5-5-5-5-|


  
e:-----------------|-----------------|-----------------|
B:-----------------|-----------------|-----------------|
G:-----------------|-----------------|-----------------|
D:-----------------|-----------------|-----------------|
A:-----------------|-----------------|-----------------|
E:-3h5-5-5-5-5-5-5-|-3h5-5-5-3h5-5-5-|-3h5-5-5-5-5-3-1-|


Verse 3:



Chorus:
D F G
Get over it



Solo 3:
e:-----------13---13-|---------10-9-10v/-|-----------------10-|
B:-----------12---12-|-------------------|-----------10-10----|
G:-------------------|-------------------|-------10b----------|
D:-------------------|-------------------|--------------------|
A:-------------------|-------------------|--------------------|
E:-------------------|-------------------|--------------------|

e:--------------------|----------------10-13b-|-13b--13b--13b--13b--|
B:-13bv------13br-10--|-------------13--------|---------------------|
G:--------------------|-12bv----12b-----------|---------------------|
D:--------------------|-----------------------|---------------------|
A:--------------------|-----------------------|---------------------|
E:--------------------|-----------------------|---------------------|

e:-13b--13b--13br-----|----------------------|---------------------------|
B:----------------10--|-13b------13br-10-----|-----------------13-13--15b|
G:--------------------|------------------12b-|-------------12b-----------|
D:--------------------|----------------------|---------------------------|
A:--------------------|----------------------|---------------------------|
E:--------------------|----------------------|---------------------------|

e:---------12-10--9-|-13----13-12br---10-|-13b-13-10-13-10----10----|
B:------------------|----10--------------|-----------------12----10-|
G:------------------|--------------------|--------------------------|
D:------------------|--------------------|--------------------------|
A:------------------|--------------------|--------------------------|
E:------------------|--------------------|--------------------------|

e:-------------------------|-13b---10----13b---10----|
B:-12--9-------------------|----------13----------13-|
G:-------12-10-------------|-------------------------|
D:-------------------12-10-|-------------------------|
A:-------------------------|-------------------------|
E:-------------------------|-------------------------|

e:-13b---10----13b---10----|-10------------------------|
B:-----------13--------13--|-----12---9----------------|
G:-------------------------|------------13p12p10-------|
D:-------------------------|---------------------12-10-|
A:-------------------------|---------------------------|
E:-------------------------|---------------------------|

e:-----------------|--------------|
B:-----------------|-------15/----|
G:-13-12-10--------|-------14/----|
D:----------12-----|-------12/----|
A:-----------------|--------------|
E:-----------------|--------------|





Yost with the Most
Comments