Eagles - Best Of My Love Chords & Tabs

 

Best Of My Love Chords & Tabs

Eagles Chords & Tabs

Version: 1 Type: Bass Tab 0 ratings
1 star 2 stars 3 stars 4 stars 5 stars
comments

Best Of My Love Bass Tab

-------------------------------------------------------------------------------
			     SONG NAME - Band Name
-------------------------------------------------------------------------------

Tabbed By : Timbob8907
e-mail: llamas_are_freakin_awesome@hotmail.com---- email if you find mistakes or feedback, please
[ Tab from: http://www.guitartabs.cc/tabs/e/eagles/best_of_my_love_btab.html ]
Tuning: STANDARD 4 STRING -- E A D G
(after guitar intro) 
VERSE                                        X3                    
G|--------0-------0---------2--------2-0--|
D|---------------------0--0-----0--0------|
A|---3--3----3--3-------------------------|
E|----------------------------------------|
   | | | | | | | | | | | | | | | | | | | | _ _ _ _ _ _ _ _ _ _ _ _ _ _ _ _  
PRE-CHORUS                                                                 |
G|-------------2-0------------------0---------2------0---0-------|         |
D|--------0--0---------------------------0--0--------------3-2-0-|         |
A|-----------------------------3--3-------------3--3-------------|         |
E|--0-00-----------0-00---3--------------------------------------|         |
                                                                           |
CHORUS                                                                     |
G|-------0-------0-------2--------2-0-------0-------0-------2-------2-0--| |
D|------------------0--0-----0--0----------------------0--0----0--0------| |
A|--3--3----3--3-----------------------3--3----3--3----------------------| |
E|-----------------------------------------------------------------------| |
                                                                     _ _ _ |
BRIDGE                                                              |
G|-------------------0-------0---------------------------------|    |
D|-------------------------------------------------------------|    |
A|--------------3--3----3--3-----------------3-----------------|    |
E|-1-11---1-11------------------1-11--3-33------------3--------|    |
                                                                    |
BRIDGE (* 2)                                                        |
G|-------------------------------------------------|                |
D|-------------------------------------------------|                |
A|-------------------------------------------------|                |
E|-1-11----1-11----1-11----3-----------------------|                |
                                                                    |
OUTTRO------- REPEAT VERSE AS NECESSARY (UNTIL FADE) _ _ _ _ _ _ _ _| 


STRUCTURE:
VERSE X3
PRE-CHOURUS X1
VERSE X2
CHORUS X2
BRIDGE X1
VERSE X2
BRIDGE(*2) X1
OUTTRO (VERSE UNTIL FADE)
Comments