Eagles - Already Gone Chords & Tabs

 

Already Gone Chords & Tabs

Eagles Chords & Tabs

Version: 2 Type: Tab 0 ratings
1 star 2 stars 3 stars 4 stars 5 stars
comments

Already Gone Tab

   
artist: the eagles
number: already gone
tabber: jurre ( skateboard_rules_1@hotmail.com )


E------------------------|
B------0---0---0---------|
G--0-0---0---0---0-------|
D------------------------|
A------------------------|
E-3-3-3-3-3-3-3-3--------|


PART ONE
here is the begining
E------------------|
B--0---0---0---0---|
G----0---0---0---0-|
D------------------|
A------------------|
E-3-3-3-3-3-3-3-3--|


PART TWO
then
E---------------------|
B--1-0-1-0------------|
G---------------------|
D---------------------|
A-3-3-3-3-------------|
E---------------------|

brand new shoes, walking blues

PLAY AGAIN THE PART ONE
CHORUS 1: \"D\" \"C\" \"G\"

 |\"G\" | |\"C\" | |\"G\"
 |    | |    | |
E|-2--|-|----|-|----------------|
B|---3|-|-3-3|-|--0---0---------|
G|----|-|----|-|----0---0-------|
D|0-0-|-|----|-|----------------|
A|----|-|3-3-|-|----------------|
E|----|-|----|-|-3-3-3-3--------|

CHORUS 2: \"D\" \"C\" \"G\"
[ Tab from: http://www.guitartabs.cc/tabs/e/eagles/already_gone_tab_ver_2.html ]
 |\"G\" | |\"C\" | |\"G\"
 |    | |    | |
E|-2--|-|----|-|----------------|
B|---3|-|-3-3|-|----0---0-------|
G|----|-|----|-|--0---0---------|
D|0-0-|-|----|-|----------------|
A|----|-|3-3-|-|----------------|
E|----|-|----|-|-3-3-3-3--------|

ORDER:

INTRO x1
VERSE PART 1 x2
VERSE PART 2 x1
VERSE PART 1 x1
CHORUS 1 x1
CHORUS 2 x1

VERSE PART 1 x2
VERSE PART 2 x1
VERSE PART 1 x1
CHORUS 1 x1
CHORUS 2 x1

VERSE PART 1 x2
VERSE PART 2 x1
VERSE PART 1 x1
CHORUS 1 x1
CHORUS 2 x1

VERSE PART 1 x2
VERSE PART 2 x1
VERSE PART 1 x1
CHORUS 1 x1
CHORUS 2 x1


INTERLUDE: \"G\"

E------------------------|
B------0---0---0---------|
G--0-0---0---0---0-------|
D------------------------|
A------------------------|
E-3-3-3-3-3-3-3-3--------|


VERSE PART 2 x1
VERSE PART 1 x1
VERSE PART 2 x1
VERST PART 1 x1

VERSE PART 3: \"A\"
VERSE PART 1 x1
E------------------------|
B----2-2-----------------|
G--2-----2---------------|
D------------------------|
A-0-0-0-0----------------|
E------------------------|

VERSE PART 4: \"D\"
E----2-------------------------|
B--3---3-3---------------------|
G------------------------------|
D-0-0-0-0----------------------|
A------------------------------|
E------------------------------|
Comments