Eagle Eye Cherry - Save Tonight Chords & Tabs

 

Save Tonight Chords & Tabs

Eagle Eye Cherry Chords & Tabs

Version: 1 Type: Tab 0 ratings
1 star 2 stars 3 stars 4 stars 5 stars
comments

Save Tonight Tab

   
SAVE TONIGHT

by Eagle-Eye Cherry
Album: Desireless
(1998)



INTRO(4x), VERSE & CHORUS:

   Am     F         C        G
E|-0-0-0--1-1-1---|-----0-0--3-3-3-|----------------|
B|-1-1-1--1-1-1---|-----1-1--3-3-3-|----------------|
G|-2-2-2--2-2-2---|-0---0-0--0-0-0-|----------------| 
D|-2-2-2--3-3-3---|-0h2-2-2--0-0-0-|----------------|
A|-0-0-0--3-3-3---|-3---3-3--2-2-2-|----------------|
E|-0-0-0--x-x-x---|-x---x-x--3-3-3-|----------------|
         

SOLO 1:

E|-----------------|----------------|----------------|----------------|
B|-----------------|-------/10-8----|---/13----13----|--13--13/15--15-|
G|-9/5--5-5-5--5/7-|--9/5-----------|----------------|----------------|
D|-----------------|----------------|----------------|----------------|
A|-----------------|----------------|----------------|----------------|
E|-----------------|----------------|----------------|----------------|

E|-15-15----------|15/17/15--------|----------------|----------------|
B|----------------|----------------|----------------|----------------|
G|----------------|----------------|----------------|----------------|
D|----------------|----------------|----------------|----------------|
A|----------------|----------------|----------------|----------------|
E|----------------|----------------|----------------|----------------|


SOLO 2:

E|----------------|----------------|----------------|----------------|
B|----------------|--------/10-8---|----------------|-------/10-8----|
G|-9/5--5-5-5--5/7|--9/5-----------|9/5--5-5-5--5/7-|--9/5-----------|
D|----------------|----------------|----------------|----------------|
A|----------------|----------------|----------------|----------------|
E|----------------|----------------|----------------|----------------|
[ Tab from: http://www.guitartabs.cc/tabs/e/eagle_eye_cherry/save_tonight_tab.html ]
E|----------------|----------------|-15-15-15^(17)15-|----------------|
B|-/13-13---------|--13h15-15/17-15|-----------------|-15^(17)-13-----|
G|----------------|----------------|-----------------|----------------|
D|----------------|----------------|-----------------|----------------|
A|----------------|----------------|-----------------|----------------|
E|----------------|----------------|-----------------|----------------|

E|----------------|----------------|-15-15-15/17-17-|-12-12-12h13p12-|
B|-13h15-15-15----|-15^-15^-15^-15^|----------------|----------------|
G|----------------|----------------|----------------|----------------|
D|----------------|----------------|----------------|----------------|
A|----------------|----------------|----------------|----------------|
E|----------------|----------------|----------------|----------------|

E|----------------|----------------|----------------|-------15---15--|
B|-15-13----------|----------------|-----------13-15|-13-15^--15^----|
G|-------14-12----|-12h14-14--14-12|-12h14-14-------|----------------|
D|----------------|----------------|----------------|----------------|
A|----------------|----------------|----------------|----------------|
E|----------------|----------------|----------------|----------------|

E|----15----------|----------------|----------------|----------------|
B|-15^--15^-13----|----------------|----------------|----------------|
G|-------------14-|----------------|----------------|----------------|
D|----------------|----------------|----------------|----------------|
A|----------------|----------------|----------------|----------------|
E|----------------|----------------|----------------|----------------|



NOTES:

The final SOLO is an improvisation of the first one so it will not 
sound exactly like the original cd at the end.  I modified it a 
little at the end, so you could end the song instead of fading out.



khoo33@hotmail.com
Comments