E So - Star Chords & Tabs

 

Star Chords & Tabs

E So Chords & Tabs

Version: 1 Type: Tab 0 ratings
1 star 2 stars 3 stars 4 stars 5 stars
comments

Star Tab

   
E.SO - Star

Drop D Tuning
INTRO/VERSE x6
E-------------------0-------0--------------------0-------0---|
B---------1-----1-----0-------0--------1-----1-----0-------0-|
G-----2-----2-----------------------0-----0------------------|
D--2---2-----2---2-------0-------2---2-----2---2------0-----|
A-0---------------------0-------3--------------------0-------|
d------------------------------------------------------------|
                Am              C
[ Tab from: http://www.guitartabs.cc/tabs/e/e_so/star_tab.html ]
CHORUS PART 1 x4
E---------------|
B---------------|
G---------------|
D-77---88---55--|
A-77---88---55--|
D-77---88---55--|

Chorus PART 2 x4
E-------------------------|
B-------------------------|
G------10-----------------|
D-7777-10-88-8-10-1010-12-|
A-7777-8--88-8----1010----|
D-7777---88-8----1010----|

BRIDGE (This love for you)
E-----------------| X8
B-----------------|
G-----------------|
D-7----8----xx55--|
A-7-x6-8-x6-xx55--|
D-7----8----xx55--|

E-----------------|
B-10---11----8----|
G-9x6-10-x6-7----|x2
D-7----8-----5----|
A-----------------|
D-----------------|

END
E-0----0----|
B1-1-1----|
G---2-2----|x2
D------2----|
A------0----|
E-----------|
Comments