Dzem - Zapal Swieczke Chords & Tabs

 

Zapal Swieczke Chords & Tabs

Dzem Chords & Tabs

Version: 1 Type: Tab 0 ratings
1 star 2 stars 3 stars 4 stars 5 stars
comments

Zapal Swieczke Tab

Dzem - Zapal Swieczke                                  


© 2003 DavidMaas666@hotmail.com

                                                             
E||-----------------------------|---------------------------|
B||--------------------------1--|--------3------------------|
G||*--------2----------0--------|-----2-----------0---------|
D||*-----2-----2-----2---0-2----|--0----------0-2----2-0----|
A||---0-----------3-------------|------------------------3--|
E||-----------------------------|---------------------------|


                                                          
----------------------------|----------------------------|
-------------------------1--|--------3-------------------|
--------2----------0--------|-----2------------0---------|
-----2-----2-----2---0-2----|--0---------0-0-2----2-0----|
--0-----------3-------------|-------------------------3--|
----------------------------|----------------------------|


                                                         
----------------------------|---------------------------|
-------------------------1--|--------3------------------|
--------2----------0--------|-----2-----------0---------|
-----2-----2-----2---0-2----|--0----------0-2----2-0----|
--0-----------3-------------|------------------------3--|
----------------------------|---------------------------|


                                                         
----------------------------|---------------------------|
-------------------------1--|--------3------------------|
--------2----------0--------|-----2-----------0---------|
-----2-----2-----2---0-2----|--0----------0-2----2-0----|
--0-----------3-------------|------------------------3--|
----------------------------|---------------------------|


                                                         
----------------------------|---------------------------|
-------------------------1--|--------3------------------|
--------2----------0--------|-----2----2-----2----2--4--|
-----2-----2-----2---0-2----|--0---------0-0-3----3/-5--|
--0-----------3-------------|----------------3----3/-5--|
----------------------------|----------------1----1--3--|


                                                        
----------------------------|--------------------------|
-------------------------1--|--------3------3----------|
--------2----------0--------|-----2----2----2----------|
-----2-----2-----2---0-2----|--0---------0--0----------|
--0-----------3-------------|--------------------------|
----------------------------|----------------------0-3-|

[ Tab from: http://www.guitartabs.cc/tabs/d/dzem/zapal_swieczke_tab.html ]
                                                         
----------------------------|---------------------------|
-------------------------1--|--------3------------------|
--------2----------0--------|-----2-----------0---------|
-----2-----2-----2---0-2----|--0----------0-2----2-0----|
--0-----------3-------------|------------------------3--|
----------------------------|---------------------------|


                                                         
----------------------------|---------------------------|
-------------------------1--|--------3------------------|
--------2----------0--------|-----2-----------0---------|
-----2-----2-----2---0-2----|--0----------0-2----2-0----|
--0-----------3-------------|------------------------3--|
----------------------------|---------------------------|


                                                         
----------------------------|---------------------------|
-------------------------1--|--------3------------------|
--------2----------0--------|-----2----2-----2----2--4--|
-----2-----2-----2---0-2----|--0---------0-0-3----3/-5--|
--0-----------3-------------|----------------3----3/-5--|
----------------------------|----------------1----1--3--|


                                                                              
----------------------------|------------------------|-----------------------|
-------------------------1--|--------3------3--------|---------6----5--------|
--------2----------0--------|-----2----2----2--------|--0/2-5-------4--------|
-----2-----2-----2---0-2----|--0---------0--0--------|--------------2--------|
--0-----------3-------------|------------------------|-----------------------|
----------------------------|------------------------|-----------------------|


                                                               
--------------------|--------------------|--------------------|
--------------------|--------------------|--------------------|
--2--------5--------|--2--------1--------|--5--------2--------|
--2--------5--------|--3--------2--------|--5--------2--------|
--0--------3--------|--3--------2--------|--3--------0--------|
--------------------|--1--------0--------|--3-----------------|


                                                                
---------------------|--------------------|--------------------|
-------6----5--------|--------------------|--------------------|
--5---------4--------|--2--------5--------|--2--------1--------|
--5---------2--------|--2--------5--------|--3--------2--------|
--3------------------|--0--------3--------|--3--------2--------|
---------------------|--------------------|--1--------0--------|


                                                                 
--------------------|--------------------|---------------------||
--------------------|--------------------|---------------------||
--5--------2--------|--5--------2--------|--7--------2--------*||
--5--------2--------|--5--------3--------|--7--------2--------*||
--3--------0--------|--3--------3--------|--5--------0---------||
--3-----------------|--3--------1--------|--5------------------||


Comments