Dynamite Hack - Slice Of Heaven Chords & Tabs

 

Slice Of Heaven Chords & Tabs

Dynamite Hack Chords & Tabs

Version: 1 Type: Tab 0 ratings
1 star 2 stars 3 stars 4 stars 5 stars
comments

Slice Of Heaven Tab

Intro 
---------------------------------------------------------------------------|
---------------------------------------------------------------------------|
--555-----------------555--------------------------------------------------|
--555--333--777--555--555--333--777--555--(2x)-----------------------------|
--333--333--777--555--333--333--777--555-----------------------------------|
-------111--555--333-------111--555--333-----------------------------------|

---------------------------------------------------------------------------|
---------------------------------------------------------------------------|
---------------555-------------------------------555-----------------------|
--333333--777--555--555555555--77-5-333333--777--555--5xxxx5xxxx5xxxx5555--|
--333333--777--333--555555555--77-5-333333--777--333--5xxxx5xxxx5xxxx5555--|
--111111--555-------333333333--55-3-111111--555-------3xxxx3xxxx3xxxx3333--|


Verse
---------------------------------------------------------------------------|
---------------------------------------------------------------------------|
--5555-----------------5555------------------------------------------------|
--5555--333--777--555--5555--333--777--555--(3x)---------------------------|
--3333--333--777--555--3333--333--777--555---------------------------------|
--------111--555--333--------111--555--333---------------------------------|


Chorus 1
---------------------------------------------------------------------------|
---------------------------------------------------------------------------|
---------------555-------------------------------555-----------------------|
--333333--777--555--555555555--77-5-333333--777--555--5--5--5--5-----------|
--333333--777--333--555555555--77-5-333333--777--333--5--5--5--5-----------|
--111111--555-------333333333--55-3-111111--555-------3--3--3--3-----------|

---------------------------------------------------------------------------|
---------------------------------------------------------------------------|
--5555-----------------5555------------------------------------------------|
--5555--333--777--555--5555--333--777--555--(2x)---------------------------|
--3333--333--777--555--3333--333--777--555---------------------------------|
--------111--555--333--------111--555--333---------------------------------|


Verse
---------------------------------------------------------------------------|
---------------------------------------------------------------------------|
--5555-----------------5555------------------------------------------------|
--5555--333--777--555--5555--333--777--555--(2x)---------------------------|
--3333--333--777--555--3333--333--777--555---------------------------------|
--------111--555--333--------111--555--333---------------------------------|
[ Tab from: http://www.guitartabs.cc/tabs/d/dynamite_hack/slice_of_heaven_tab.html ]
Chorus 2
---------------------------------------------------------------------------|
---------------------------------------------------------------------------|
---------------555-------------------------------555-----------------------|
--333333--777--555--555555555--77-5-333333--777--555--555555--777--555-----|
--333333--777--333--555555555--77-5-333333--777--333--555555--777--555-----|
--111111--555-------333333333--55-3-111111--555-------333333--555--333-----|

---------------------------------------------------------------------------|
---------------------------------------------------------------------------|
---------------555-------------------------------555-----------------------|
--333333--777--555--555555555--77-5-333333--777--555--5--5--5--5-----------|
--333333--777--333--555555555--77-5-333333--777--333--5--5--5--5-----------|
--111111--555-------333333333--55-3-111111--555-------3--3--3--3-----------|

---------------------------------------------------------------------------|
---------------------------------------------------------------------------|
--5555-----------------5555------------------------------------------------|
--5555--333--777--555--5555--333--777--555---------------------------------|
--3333--333--777--555--3333--333--777--555---------------------------------|
--------111--555--333--------111--555--333---------------------------------|

---------------------------------------------------------------------------|
---------------------------------------------------------------------------|
--5555-----------------5555------------------------------------------------|
--5555--333--777--555--5555--333--777--888---------------------------------|
--3333--333--777--555--3333--333--777--888---------------------------------|
--------111--555--333--------111--555--666---------------------------------|



Bridge
---------------------------------------------------------------------------|
---------------------------------------------------------------------------|
--8888--------------------8888---------------------------------------------|
--8888--666--121212--888--8888--666--121212--131313--(2x)------------------|
--6666--666--121212--888--6666--666--121212--131313------------------------|
--------444--8-8-8---666--------444--8-8-8---9-9-9-------------------------|


Outro
---------------------------------------------------------------------------|
---------------------------------------------------------------------------|
--5555-----------------5555------------------------------------------------|
--5555--333--777--555--5555--333--777--555---------------------------------|
--3333--333--777--555--3333--333--777--555---------------------------------|
--------111--555--333--------111--555--333---------------------------------|

---------------------------------------------------------------------------|
---------------------------------------------------------------------------|
--5555-----------------5555------------------------------------------------|
--5555--333--777--555--5555--333--777--555--3------------------------------|
--3333--333--777--555--3333--333--777--555--3------------------------------|
--------111--555--333--------111--555--333--1------------------------------|
Comments