Dynamite Hack - Anyway Chords & Tabs

 

Anyway Chords & Tabs

Dynamite Hack Chords & Tabs

Version: 4 Type: Tab 0 ratings
1 star 2 stars 3 stars 4 stars 5 stars
comments

Anyway Tab

   
Anyway
Dynamite Hack


Intro/Verse:
    B        E   F#   G#       E   F#      2x
e|-----------|----------|----------|-----------||
B|-----------|----------|----------|----------*||
G|--44444444-|----------|----------|-----------||
D|--44444444-|-22224444-|-66666666-|-22224444--||
A|--22222222-|-22224444-|-66666666-|-22224444-*||
E|-----------|-00002222-|-44444444-|-00002222--||

Chorus:
    G#               E                B                F#                  2x
e|-----------------------------------------------------------------------||
B|----------------------------------------------------------------------*||
G|------------------------------------4444444444444444-------------------||
D|--666666666666-6-4-2222222222222222-4444444444444444-4444444444444444--||
A|--666666666666-6-4-2222222222222222-2222222222222222-4444444444444444-*||
E|--444444444444-4-2-0000000000000000------------------2222222222222222--||
[ Tab from: http://www.guitartabs.cc/tabs/d/dynamite_hack/anyway_tab_ver_4.html ]
Interlude:
    B               E       F#       G#  3x
e|--------------------------------------||--------------------------------||
B|-------------------------------------*||--------------------------------||
G|--------------------------------------||--------------------------------||
D|--9p8-9p8-9p8-9p8-9p8-9p8-11p9-8p9----||--9/11-11-11-11-11/13-13-13-13--||
A|-------------------------------------*||--------------------------------||
E|--------------------------------------||--------------------------------||

Verse

Chorus

Solo:
  (bass only for 4 measures)
e|------7-9-9b9-7----------------------------||
B|--7-9-----------9--7-9--------------------*||
G|-----------------------9-8-88-9-11-8-9-11--||
D|-------------------------------------------||
A|------------------------------------------*||
E|-------------------------------------------||

Bridge:
    1 + 2 + 3 + 4 +   1 + 2 + 3 + 4 +   2x
e|------------------|------------------||
B|----4---4---5---7-|---4---4---5---7-*||
G|----4---4---4---6-|---4---4---4---6--||
D|----4---4---6---8-|---6---6---6---8--||
A|------------------|-----------------*||
E|------------------|------------------||

Verse

Chorus

End on a B5.
Comments