Dynamite Hack - Anyway Chords & Tabs

 

Anyway Chords & Tabs

Dynamite Hack Chords & Tabs

Version: 3 Type: Tab 0 ratings
1 star 2 stars 3 stars 4 stars 5 stars
comments

Anyway Tab

Ok kids, this is the first part of the piano version of ?Anyway? by Dynamite Hack. Some chick sings it, 
its still a good song. I hope you enjoy.

[------------------------------------------------------------------------------------------------|
[---------------4--5--4--------------------------------5--4--------------------------------------|
[---------4--6---------------4----------4------4----------------4---------4-------4--------------|
[------4-------------------4----------4------4----------------4---------4-------4----------------|
[------------------------------------------------------------------------------------------------|
[---------------------------------0-------2--------4----------------0--------2-------------------|

[ Tab from: http://www.guitartabs.cc/tabs/d/dynamite_hack/anyway_tab_ver_3.html ]
[------------------------------------------------------------------------------------------------|
[----------5--4------------------------------5--4------------------------------------------------|
[--------------------4-------4------4----------------4-------4------4----------------------------|
[------------------4-------4------4----------------4-------4------4------------------------------|
[-----2------------------------------------------------------------------------------------------|
[----------------------0--------2-------4---------------0------2---------------------------------|

        |<========this part repeats for the verses? mostly=====>|

This is as far as I have gotten. It uses a piano, so it might take a little while to figure the rest of it 
Just like most songs, you will have to listen to the song to get the rhythm right. Have fun with this, 
as always?..

GTW FOREVER!!!!!!
Comments