Dylan Bob - Blowin In The Wind Chords & Tabs

 

Blowin In The Wind Chords & Tabs

Dylan Bob Chords & Tabs

Version: 1 Type: Tab 0 ratings
1 star 2 stars 3 stars 4 stars 5 stars
comments

Blowin In The Wind Tab

   
#----------------------------------PLEASE NOTE---------------------------------#
#This file is the author's own work and represents their interpretation of the #
#song. You may only use this file for private study, scholarship, or research. #
#------------------------------------------------------------------------------##

Blowin' In The Wind

By Bob Dylan

I have never come across a completely correct tab of this song (well not the version on Greatest Hits) so I thought I might try and take it a step closer

*****CAPO 7*****

Chords:

G: 320033
C: x32010
D: x00232

I haven't given strum notations but you should be able to improvise
or work it out fairly easily

    G      C       D       G           C       G
E---3--3-3---0---0---2---2---3-3---3-3---0---0---3-3-3-----3-3-
B---3--3-3---1---1---3---3---3-3---3-3---1---1---3-3-3-----3-3-
G---0--0-0---0---0---2---2---0-0---0-0---0---0---0-0-0-----0-0-
D----------------------0---------------------------------------
A----------3---2---0-------------------3---2------------H------
E-3------------------------3-----3-------------3-------0-3-----
  How many  roads ...
     

[ Tab from: http://www.guitartabs.cc/tabs/d/dylan_bob/blowin_in_the_wind_tab.html ]
    G      C       D       G           C       D
E---3--3-3---0---0---2---2---3-3---3-3---0---0---2-2---2-2-
B---3--3-3---1---1---3---3---3-3---3-3---1---1---3-3---3-3-
G---0--0-0---0---0---2---2---0-0---0-0---0---0---2-2---2-2-
D----------------------0-----------------------------0-----
A----------3---2---0-------------------3---2---0-----------
E-3------------------------3-----3-------------------------
 
        


    G      C       D       G           C       D
E---3--3-3---0---0---2---2---3-3---3-3---0---0---2-2---2-2-
B---3--3-3---1---1---3---3---3-3---3-3---1---1---3-3---3-3-
G---0--0-0---0---0---2---2---0-0---0-0---0---0---2-2---2-2-
D----------------------0-----------------------------0-----
A----------3---2---0-------------------3---2---0-----------
E-3------------------------3-----3-------------------------
  
        

 
  C       D       G       C              D       G  
E---0---0---2---2---3---3---0--0---0---0---2---2---3--3-3---3--3-3-
B---1---1---3---3---3---3---1--1---1---1---3---3---3--3-3---3--3-3-
G---0---0---2---2---0---0---0--0---0---0---2---2---0--0-0---0--0-0-
D-------------0----------------------------------------------------
A-3---2---0-----------2---3------3---2---0-------------------------
E-----------------3-----------3--------------2---3--------3--------
  answ-er  friend ...
The      my        


  C       D       G       C              D       G  
E---0---0---2---2---3---3---0--0---0---0---2---2---3--3-3---3--3-3-
B---1---1---3---3---3---3---1--1---1---1---3---3---3--3-3---3--3-3-
G---0---0---2---2---0---0---0--0---0---0---2---2---0--0-0---0--0-0-
D-------------0----------------------------------------------------
A-3---2---0-----------2---3------3---2---0-------------------------
E-----------------3-----------3--------------2---3--------3--------
 (Harmonica etc)


 



Criticism warmly accepted at

ihateibiza@hotmail.com
Comments