Dwight Yoakam - Fast As You Chords & Tabs

 

Fast As You Chords & Tabs

Dwight Yoakam Chords & Tabs

Version: 2 Type: Tab 0 ratings
1 star 2 stars 3 stars 4 stars 5 stars
comments

Fast As You Tab

   
-----------------------------------------------------------------------------
			     Fast as You - Dwight Yoakum
-----------------------------------------------------------------------------
Tabbed by: WildCat Growlin

Tuning: Standard--e B G D A E

e|--------------------------------------------------------------------------|
B|--------------------------------------------------------------------------|
G|--------------------------------------------------------------------------|
D|-----------0-----------------0-----------------0--------------------------|
A|-------------2-4-2-------------2-4-2-------------2-4-2--------------------|
E|--0-0--3-4----------0-0--3-4----------0-0--3-4----------------------------|

Play this Twice then

e|--------------------------------------------------------------------------|
B|--------------------------------------------------------------------------|
G|-----------0-----------------0--------------------------------------------|
D|-------------2-4-2-------------2-4-2--------------------------------------|
A|--0-0--3-4----------0-0--3-4----------------------------------------------|
E|--------------------------------------------------------------------------|
[ Tab from: http://www.guitartabs.cc/tabs/d/dwight_yoakam/fast_as_you_tab_ver_2.html ]
e|--------------------------------------------------------------------------|
B|--------------------------------------------------------------------------|
G|--------------------------------------------------------------------------|
D|-----------0-----------------0--------------------------------------------|
A|-------------2-4-2-------------2-4-2--------------------------------------|
E|--0-0--3-4----------0-0--3-4----------------------------------------------|

Now this is how it goes,F#7(11213)4 times, A(just do 003330) 2 times then G(you can just 
x000xx)

e|--------------------------------------------------------------------------|
B|--------------------------------------------------------------------------|
G|--------------------------------------------------------------------------|
D|-----------0-----------------0--------------------------------------------|
A|-------------2-4-2-------------2-4-2--------------------------------------|
E|--0-0--3-4----------0-0--3-4----------------------------------------------|
 (this is the body of the verses and chorus)

now after that play A(X333XX) 12 times play this set the A and above 3 times

play B(13321X)

F#7(11213) 4 times again A(X333XX) twice G(X000XX)
e|--------------------------------------------------------------------------|
B|--------------------------------------------------------------------------|
G|--------------------------------------------------------------------------|
D|-----------0-----------------0--------------------------------------------|
A|-------------2-4-2-------------2-4-2--------------------------------------|
E|--0-0--3-4----------0-0--3-4----------------------------------------------|
play all ths starting with the F#7 twice
now there is a solo that I'm going to omit but if you want to know it you can listen to 
song, it's an awesome solo I never could get it down
try it and rock out to a little Country Rock

http://www.dwightyoakam.com/
Comments