Dwight Yoakam - Blame The Vain Chords & Tabs

 

Blame The Vain Chords & Tabs

Dwight Yoakam Chords & Tabs

Version: 1 Type: Chords 0 ratings
1 star 2 stars 3 stars 4 stars 5 stars
comments

Blame The Vain Chords

   
Intro:
                      Am                          G                              
E|--------------------0------|--------------------3-----||
B|--------------------1------|--------------------0-----||
G|--------------------2------|--------------------0-----||
D|--------------------2------|--------------------0-----||
A|-------2-2--3-3--0---------|--0-0--3-3--2-2-----2-----||
E|--3-3----------------------|--------------------3-----||
                              
                      Am                          G                              
E|--------------------0------|--------------------3-----||
B|--------------------1------|--------------------0-----||
G|--------------------2------|--------------------0-----||
D|--------------------2------|--------------------0-----||
A|-------2-2--3-3--0---------|--0-0--3-3--2-2-----2-----||
E|--3-3----------------------|--------------------3-----||



            G
I blame the vain for what we wear
                Am                  G
And I blame the blind when we can't see

I blame it all on someone else
                    Am    C                 G   Am  G
Till there's nobody left, then I just blame me

[ Tab from: http://www.guitartabs.cc/tabs/d/dwight_yoakam/blame_the_vain_crd.html ]
            G
I blame her mind for the thoughts we share
                Am                      G
And I blame her heart for every time we cared

I blame it all on how we used to be
                   Am    C                    G
Till she's finally gone, then I'll just blame me


                D                       G
So go ahead and blame anything that you want
                         D
Cause it all ends up the same 
          C                                  D
When everything that you've been claiming is wrong


Instrumental:  G Am C G


                           D                     G
Oh and don't you know that blame is always never enough
                       D
It just keeps you in a game
            C                         D
Till you've only got yourself left to bluff


No Chord       G
So I blame the vain for what we wear
                         Am                  G
Yeah, and I'll blame the blind when we can't see

I'll blame it all on someone else
                    Am    C                    G
Till there's nobody left, then I'll just blame me
                   Am    C                    G   Am G Am G
Till she's finally gone, then I'll just blame me
Comments