Dwarves - Salt Lake City Chords & Tabs

 

Salt Lake City Chords & Tabs

Dwarves Chords & Tabs

Version: 1 Type: Tab 0 ratings
1 star 2 stars 3 stars 4 stars 5 stars
comments

Salt Lake City Tab

   
Song: Salt Lake City
Artist: The Dwarves (w/ Dexter Holland)
Album: The Dwarves must die
Tabbed by: TheRisen (multani89@operamail.com)

Intro:
e|--------------------------------------------------|
B|--------------------------------------------------|
G|---------------7--7-9-9-9--11-11-11-11-11-11-11-9-|
D|-7--7--7-7-7-7-7--7-9-9-9--11-11-11-11-11-11-11-9-|
A|-7--7--7-7-7-7-5--5-7-7-7--9--9--9--9--9--9--9--7-|
E|-5--5--5-5-5-5------------------------------------|

Verse:
Hit these chords several times, with some mutings.
e|-----|
B|-----|
G|---7-| 2x
D|-7-7-|
A|-7-5-|
E|-5---|

Pre-chorus:
e|-------------------------------------------------------------------|
B|-------------------------------------------------------------------|
G|-6-6-6-6-6-------------------------7-7-7-7-7-7-7-7-7-7-9-9-9-9-9-9-|
D|-6-6-6-6-6-7-7-7-7-7-7-9-9-9-9-9-9-7-7-7-7-7-7-7-7-7-7-9-9-9-9-9-9-|
A|-4-4-4-4-4-7-7-7-7-7-7-9-9-9-9-9-9-5-5-5-5-5-5-5-5-5-5-7-7-7-7-7-7-|
E|-----------5-5-5-5-5-5-7-7-7-7-7-7---------------------------------|

Chorus:
e|--------------------------|
B|--------------------------|
G|---------------7--7-9-9-9-| 3x
D|-7--7--7-7-7-7-7--7-9-9-9-|
A|-7--7--7-7-7-7-5--5-7-7-7-|
E|-5--5--5-5-5-5------------|

Chorus-ending:
e|------------------------|
B|------------------------|
G|-11-11-11-11-11-11-11-9-|
D|-11-11-11-11-11-11-11-9-|
A|-9--9--9--9--9--9--9--7-|
E|------------------------|
[ Tab from: http://www.guitartabs.cc/tabs/d/dwarves/salt_lake_city_tab.html ]
Verse2:
Played over the Verse-chords:
e|---6---------7-----4----------4---|
B|-----7---------6-----5----------5-|
G|-6-----6---6-----4------4---4-----| 2x
D|----------------------------------|
A|----------------------------------|
E|----------------------------------|

Then play pre-chorus, but add:
e|-------------------------------------------|
B|-------------------------------------------|
G|-9--9-7--7--7-7-7-7--7--7-7-7-9--9-9-9-9-9-|
D|-9--9-7--7--7-7-7-7--7--7-7-7-9--9-9-9-9-9-|
A|-7--7-5--5--5-5-5-5--5--5-5-5-7--7-7-7-7-7-|
E|-------------------------------------------|

Play chorus again, with ending.

Bridge:
e|---------------------------------------------------------|
B|---------------------------------------------------------|
G|-11-11-11-11-11-11-11-11-9--11-11-11-11-11-11-11-11-13-9-| 
D|-11-11-11-11-11-11-11-11-9--11-11-11-11-11-11-11-11-13-9-|
A|-9--9--9--9--9--9--9--9--7--9--9--9--9--9--9--9--9--11-7-|
E|---------------------------------------------------------|

e|-------------------------------------------|
B|-------------------------------------------|
G|-11-11-11-11-11-11-11-11-13-13-13-13-9-7-6-| 
D|-11-11-11-11-11-11-11-11-13-13-13-13-9-7-6-|
A|-9--9--9--9--9--9--9--9--11-11-11-11-7-5-4-|
E|-------------------------------------------|

Then play the chorus-riff again 8x, without ending.

Outro:
e|---------------------|
B|---------------------|
G|-9-9-7-7-7-----7-7-7-| 2x
D|-9-9-7-7-7-7-7-7-7-7-|
A|-7-7-5-5-5-7-7-5-5-5-|
E|-----------5-5-------|

End on:
e|---|
B|---|
G|-9-|
D|-9-|
A|-7-|
E|---|
Comments