Dwarves - I Will Deny Chords & Tabs

 

I Will Deny Chords & Tabs

Dwarves Chords & Tabs

Version: 1 Type: Tab 0 ratings
1 star 2 stars 3 stars 4 stars 5 stars
comments

I Will Deny Tab

   
-------------------------------------------------------------------------------
                              I WILL DENY - The Dwarves
-------------------------------------------------------------------------------

By:deathless_one@hotmail.com.com(Aj)

Tuning: E A D G B E

Intro: pickslide down

Verse 1 & 2: both guitars                   x2
e|--------------------------------------------|
B|--------------------------------------------|
G|-7-7-7-7---------5-5-5-5--------------------|
D|-7-7-7-7-5-5-5-5-5-5-5-5-3-3-3-3------------|
A|-5-5-5-5-5-5-5-5-3-3-3-3-3-3-3-3------------|
E|---------3-3-3-3---------1-1-1-1------------|

Chorus: Guitar 1                            x2
e|--------------------------------------------|
B|---------10-10-10-10-12-12-12-12-10\8\6-----|
G|-7-7-7-7-10-10-10-10-12-12-12-12--------5/7-|
D|-7-7-7-7-10-10-10-10-12-12-12-12------------|
A|-5-5-5-5--8--8--8--8-10-10-10-10------------|
E|--------------------------------------------|
[ Tab from: http://www.guitartabs.cc/tabs/d/dwarves/i_will_deny_tab.html ]
Chorus: Guitar 2                            x2
e|--------------------------------------------|
B|--------------------------------------------|
G|-7-7-7-7-10-10-10-10------------------------|
D|-7-7-7-7-10-10-10-10-5-5-5-5-8-8-10-10------|
A|-5-5-5-5--8--8--8--8-5-5-5-5-8-8-10-10------|
E|---------------------3-3-3-3-6-6-8--8-------|

Solo: Guitar 1
e|--------------------------------10-10-10-8-8-10-8|
B|10-10-10-8-8-6-8-6---6-8-10-8-8-10-10-10-8-8-10-8|
G|-------------------7-----------------------------|
D|-------------------------------------------------|
A|-------------------------------------------------|
E|-------------------------------------------------|

e|--------------------------------------------|
B|--------------------------------------------|
G|15\14-14\12-12\10-10/12-12\10-10\9-9\5-5/7-7|
D|--------------------------------------------|
A|13\12-12\10-10\8---8/10-10\8---8\7-7\3-3/5-5|
E|--------------------------------------------|

Bridge: Guitar 1
e|--------------------------------------------|
B|--------------------------------------------|
G|--------------------------------------------|
D|------------------------10-10-10\-----------|
A|---------------------10-10-10-10\-----------|
E|-0-12-10--0-10-8--10-10-10-10-10\-----------|

Outro: Guitar 1 same as Chorus

Guitar 2:
e|--------------------------------------------|
B|--------------------------------------------|
G|-7-7-7-7------------------------------------|
D|-7-7-7-7-3-3-3-3-5-5-5-5-8-8-10-10----------|
A|-5-5-5-5-3-3-3-3-5-5-5-5-8-8-10-10----------|
E|---------1-1-1-1-3-3-3-3-6-6-8--8-----------|
Comments