Dwarves - Everybodys Girl Chords & Tabs

 

Everybodys Girl Chords & Tabs

Dwarves Chords & Tabs

Version: 1 Type: Tab 0 ratings
1 star 2 stars 3 stars 4 stars 5 stars
comments

Everybodys Girl Tab

Everybodies Girl - The Dwarves 

By:The Dwarves   
[ Tab from: http://www.guitartabs.cc/tabs/d/dwarves/everybodys_girl_tab.html ]
  INTRO:  
e|-------------------------------------------------------------| 
B|-------------------------------------------------------------| 
G|------------------9999-99-9999-------------------------------| 
D|--7-----9---------9999-99-9999-------------------------------|
A|--7-----9---------7777/66/7777-------------------------------|
E|--5-----7----------------------------------------------------|
 
 Verse: palm muting   Chorus:
e|-------------------------------------------------------------|
B|-------------------------------------------------------------| 
G|----------------9----6---------------------------------------| 
D|--9---11----9---9----6-----6---7---9---7---9---7---9---------| 
A|--9---11----9---7----4-----6---7---9---7---9---7---9---------|
E|--7----9----7--------------4---5---7---5---7---5---7---------| 
 
 after intro 3rd intro:
e|-4--4--4--2--2------7----------------------------------------| 
B|-5--4--5--2--3------8----------------------------------------| 
G|-6--5--6--3--4------9-----6---6--7--------9------------------| 
D|-6--6--6--4--4------------6-6-6--7--------9------------------| 
A|-4--6--4--4--2------------4-6-4--5--------7---PICKSCRAPE-----| 
E|----4-----2-----------------4--------------------------------| 
 
 Outro:
e|-------------------------------------------------------------| 
B|-------------------------------------------------------------| 
G|--9-6-9-6-9-6------------------------------------------------|
D|--9-6-9-6-9-6--2---------------------------------------------| 
A|--7-4-7-4-7-4--2---------------------------------------------| 
E|---------------0---------------------------------------------|  
 
Intro, verse, chorus, intro, verse, chorus, intro, after 3rd intro, verse, chorus, outro
Comments