Dvda - Now Your A Man Chords & Tabs

 

Now Your A Man Chords & Tabs

Dvda Chords & Tabs

Version: 1 Type: Bass Tab 0 ratings
1 star 2 stars 3 stars 4 stars 5 stars
comments

Now Your A Man Bass Tab

INTRO/VERSE

 -----------------------------------------------------------------|
 ------------------------------3-1--------------------------------|
 --1-3-3-3---1-3-3-3---1-3-3-3-----11111111-----------------------|
 ----------3---------3--------------------------------------------|

CHORUS
[ Tab from: http://www.guitartabs.cc/tabs/d/dvda/now_your_a_man_btab.html ]
 ----------------------------------------------------|
 ----------------------------------------------------|
 --333----------11111111-----------------------------|
 ------33333333--------------------------------------|

END OF CHORUS

 ---------------------------------|
 ---------------------------------|
 ---------------------------------|
 -----4------6--------------------|
Comments