Dust To Dust - No Suprise Chords & Tabs

 

No Suprise Chords & Tabs

Dust To Dust Chords & Tabs

Version: 1 Type: Tab

No Suprise Tab

chorus              chorus(lead)
e(--------------)(--7-10------)
b(--------------)(-------9-10-)
g(--44----66----)(------------)
d(--44-55-66-33-)(------------)
a(--22-55-44-33-)(------------)
D(-----55----33-)(------------)

verse
e(-------------------)
b(-------------------)
g(--4444----6666-----)
d(--4444555566663333-)
a(--2222555544443333-)
D(------5555----3333-)
  pm................
[ Tab from: http://www.guitartabs.cc/tabs/d/dust_to_dust/no_suprise_tab.html ]
bridge
e(-------------------)(-----10----8-)
b(-------------------)(-----10----9-)
g(--4444----6666-----)(-------------)
d(--4444555566663333-)(--xx----xx---)
a(--2222555544443333-)(--xx----xx---)
D(------5555----3333-)(--xx----xx---)

solo
e(-------------------------------------------------)
b(--7-6-7-6-7-6-7----------------------------------)
g(----------------7-9------------------------------)
d(--------------------10-9-----------------------9-)
a(-------------------------9-11-9-10-9-9-9-10-12---)
D(-------------------------------------------------)