Duran Duran - The Chauffeur Chords & Tabs

 

The Chauffeur Chords & Tabs

Duran Duran Chords & Tabs

Version: 1 Type: Bass Tab 0 ratings
1 star 2 stars 3 stars 4 stars 5 stars
comments

The Chauffeur Bass Tab

Artist: Duran Duran
Song Title: The Chauffeur
Album: Rio (1982)
Song Duration: 05:11 min
Tabbed by: Vuk Krajacic (krajac@eunet.yu)


Instructions:

(     ) - Song time elapsed 



Main riff (02:15)
                           
G|-----------------------------------|
D|----------0-0-0--------------------|
A|-------------------------2-2-02----|
E|--0-0-0----------3-3-3-------------|


Pre-chorus (02:49)

G|---------------------------------------------------|
D|---------------------------------------------------|
A|--------2----------2-------------2----------0-2----|
E|--3----------0-------------3----------0------------|

G|------------------------------------------------------|
D|------------------------------------------------------|
A|--0-------2--020--------2-----------2----------0-2----|
E|----3-------------0-----------3----------0------------|


Chorus (03:17)
[ Tab from: http://www.guitartabs.cc/tabs/d/duran_duran/the_chauffeur_btab.html ]
G|---------------------------------------------------|
D|---------------------------------------------------|
A|--3---------------1---------------2-----------2----|
E|---------------------------------------------------|

G|---------------------------------------------------|
D|---------------------------------------------------|
A|--3---------------1--------------1-2--------3-2----|
E|---------------------------------------------------|


Main riff (03:37)
                           
G|-----------------------------------|
D|----------0-0-0--------------------|
A|-------------------------2-2-02----|
E|--0-0-0----------3-3-3-------------|


Outro (04:58)

G|---------------------------------------|
D|----------0-0-0------------------------|
A|-------------------------2-2-02--------|
E|--0-0-0----------3-3-3------------0----|




End.



Please send your comments to krajac@eunet.yu
Comments