Duncan Sheik - For You Chords & Tabs

 

For You Chords & Tabs

Duncan Sheik Chords & Tabs

Version: 1 Type: Tab 0 ratings
1 star 2 stars 3 stars 4 stars 5 stars
comments

For You Tab

   
      Verse

      C       Am7/G  Am
e|----0-----0----0---0---0---|
B|----1-----1----1---1---0h1-|
G|----0-----0----0---2---2---|
D|----2-0h2-2----2---2---2---|
A|--3-3-----3----x---0---0---|
E|----------x--3-3---x---x---|
[ Tab from: http://www.guitartabs.cc/tabs/d/duncan_sheik/for_you_tab.html ]
      C        Am7/G  F
e|----0------0----0---0---0~---|
B|----1------1----1---1----1~--|
G|----0------0----0---2-----2~-|
D|----2-0h2--2----2---3--------|
A|--3-3------3----x---3--------|
E|--------------3-3---x--------|


Bridge ("Once again...open")
   Dm7   G7   G
e|--x-----3---3----|
B|--1-----1---0----|
G|--0-----0---0----|
D|--0-----0---0----|
A|--x-----x---x----|
E|--1-----3---3----|

That's it...simple but nice song.  Any questions:
interty77@yahoo.com

Thanks
Tyler R$
Comments