Duncan Sheik - Barely Breathing Chords & Tabs

 

Barely Breathing Chords & Tabs

Duncan Sheik Chords & Tabs

Version: 1 Type: Tab 0 ratings
1 star 2 stars 3 stars 4 stars 5 stars
comments

Barely Breathing Tab

   
----------------------------------------------------------------------------
Barely Breathing - Duncan Sheik
----------------------------------------------------------------------------
Tabbed by: Joe Aguilar
Email: jaguilar586@sprintpcs.com	

Tuning: Standard

e|------------------------------|------------------------------------------|
B|---3-----3-----3---3------3---|----2-----2-----2---2-----0---------------|
G|0----0-----0-----0----0-------|-0----0-----0-----0---0-------------------|
D|-------2-----2----------2-----|--------2-----2---------2-----------------|
A|------------------------------|------------------------------------------|
E|------------------------------|------------------------------------------|

e|--------------------------------|----------------------------------------|
B|/5--5-----5-----5-----5-----5---|----7-----7-----7-----7-----7-----------|
G|------0-----0-----0-----0-------|------0-----0-----0-----0---------------|
D|--------5-----5-----5-----5-----|-7------7-----7-----7-----7-------------|
A|--------------------------------|----------------------------------------|
E|--------------------------------|----------------------------------------|

e|-------------------------------|-----------------------------------------|
B|7----7----8----8----10----10---|-7----7----8----8----3----3--------------|
G|---0----0----0----0-----0------|----0----0----0----0----0----------------|
D|-------------------------------|-----------------------------------------|
A|-------------------------------|-----------------------------------------|
E|-------------------------------|-----------------------------------------|

e|-----------------------------|------------------|
B|-7----7----8----8----10------|-12----12----10---|
G|----0----0----0----0-----0---|-----0-----0------|
D|-----------------------------|------------------| x2
A|-----------------------------|------------------|
E|-----------------------------|------------------|
[ Tab from: http://www.guitartabs.cc/tabs/d/duncan_sheik/barely_breathing_tab.html ]
e|-----------------------------|-------------------------------------------|
B|7------7----8----8----10-----|-12-----12----10------10-----7-----7-------|
G|-----0---0----0----0-----0---|------0----0-----0-------0-----0-----------|
D|-----------------------------|-------------------------------------------|
A|-----------------------------|-------------------------------------------|
E|-----------------------------|-------------------------------------------|

e|-----------------------------|-------------------------------------------|
B|7------7----8----8----10-----|-12------12-----10-----10-----10-----7----7|
G|-----0---0----0----0-----0---|-------0----0------0------0------0-----0---|
D|-----------------------------|-------------------------------------------|
A|-----------------------------|-------------------------------------------|
E|-----------------------------|-------------------------------------------|

e|-------------------------------------|-----------------------------------|
B|7------7-----8-----8-----10-----10---|-7-----7-----8-----8-----3------3--|
G|-----0---0-----0-----0------0--------|-----0---0-----0-----0-----0-------|
D|-------------------------------------|-----------------------------------|
A|-------------------------------------|-----------------------------------|
E|-------------------------------------|-----------------------------------|

e|-------------------------------------------|-----------------------------|
B|7------7-----8-----8-----8-----10-----10---|12----12----10----10----12-12|
G|-----0---0-----0-----0-----0------0--------|----0----0-----0-----0----0--|
D|-------------------------------------------|-----------------------------|
A|-------------------------------------------|-----------------------------|
E|-------------------------------------------|-----------------------------|

e|---15-----15-----15-15-15-15-15-15-15-15-15|15-15-15-15-15-15-15-15-15-15|
B|13-----13-----13----13-13-13-13-13-13-13-13|13-13-13-13-13-13-13-13-13-13|
G|-------------------------------------------|-----------------------------|
D|-------------------------------------------|-----------------------------|
A|-------------------------------------------|-----------------------------|
E|-------------------------------------------|-----------------------------|

e|15-15-15-15-15-15--|
B|13-13-13-13-13-13--|
G|-------------------|
D|-------------------|
A|-------------------|
E|-------------------|

This is all I have the energy to do right now. It's most of the song...if enough people
like it, I'll finish it up.

| /  slide up
| \  slide down
| h  hammer-on
| p  pull-off
| ~  vibrato
| +  harmonic
| x  Mute note
============================================================================
Comments