Duncan Dhu - Al Algun Lugar Chords & Tabs

 

Al Algun Lugar Chords & Tabs

Duncan Dhu Chords & Tabs

Version: 1 Type: Tab

Al Algun Lugar Tab

   
#----------------------------------PLEASE NOTE---------------------------------#
#This file is the author's own work and represents their interpretation of the #
#song. You may only use this file for private study, scholarship, or research. #
#------------------------------------------------------------------------------##
#

Date: Thu, 27 Jun 1996 13:38:26 -0500 (CDT)
From: "\"Avelino Andretti Benavides\"" 
Subject: TAB: En algun lugar by Duncan Dhu


Wow!
This the song "En algun lugar" from the spanish rock band Duncan Dhu
Esta el la cancion "En algun lugar" del grupo de rock espa=F1ol Duncan Dhu.=
=20
( todo un clasico)
Chords                  Em                  G    D
         intro    t  t  t  e  e  s  s     e  e  e  e       =20
E---||------------0--0--0--0--0--0--0--|--3--3--3--3--------
B---||------------0--0--0--0--0--0--0--|--3--3--2--2--------
G---||*-----------0--0--0--0--0--0--0--|--0--0--3--3--------
D---||*-----------2--2--2--2--2--2--2--|--0--0--0--0--------
A---||------------2--2--2--2--2--2--2--|--2--2--0--0--------
E---||------------0--0--0--0--0--0--0--|--3--3--x--x--------
                                                           =20
Chords                    Em                     G
     2x  Riff A   t  t  t  e  e  s  s        t  t  t  e    =20
E----||-----------0--0--0--0--0--0--0--|-----3--3--3--3-----
B----||-----------0--0--0--0--0--0--0--|-----3--3--3--3-----
G---*||-----------0--0--0--0--0--0--0--|-----0--0--0--0-----
D---*||-----------2--2--2--2--2--2--2--|-----0--0--0--0-----
A----||-----------2--2--2--2--2--2--2--|-----2--2--2--2-----
E----||-----------0--0--0--0--0--0--0--|-----3--3--3--3-----
                                                           =20
Chords                    C                G        D... etc.
    e  s  s     t  t  t  e  e  s  s     s  s  e  s  s  e   =20
E---3--3--3--|--0--0--0--0--0--0--0--|--3--3--3--3--3--3----
B---3--3--3--|--1--1--1--1--1--1--1--|--3--3--3--2--2--2----
G---0--0--0--|--0--0--0--0--0--0--0--|--0--0--0--3--3--3----
D---0--0--0--|--2--2--2--2--2--2--2--|--0--0--0--0--0--0----
A---2--2--2--|--3--3--3--3--3--3--3--|--2--2--2--0--0--0----
E---3--3--3--|--0--0--0--0--0--0--0--|--3--3--3--x--x--x----
                                                           =20

                t  t  t  e  e  s  s        t  t  t  e  e   =20
E---|-----------0--0--0--0--0--0--0--|-----3--3--3--3--3----
B---|-----------0--0--0--0--0--0--0--|-----3--3--3--3--3----
G---|-----------0--0--0--0--0--0--0--|-----0--0--0--0--0----
D---|-----------2--2--2--2--2--2--2--|-----0--0--0--0--0----
A---|-----------2--2--2--2--2--2--2--|-----2--2--2--2--2----
E---|-----------0--0--0--0--0--0--0--|-----3--3--3--3--3----
                                                           =20

    s  s     t  t  t  e  e  s  s        t  t  t  e  e  s   =20
E---3--3--|--0--0--0--0--0--0--0--|-----0--0--0--0--0--0----
B---3--3--|--1--1--1--1--1--1--1--|-----1--1--1--1--1--1----
G---0--0--|--0--0--0--0--0--0--0--|-----0--0--0--0--0--0----
D---0--0--|--2--2--2--2--2--2--2--|-----2--2--2--2--2--2----
A---2--2--|--3--3--3--3--3--3--3--|-----3--3--3--3--3--3----
E---3--3--|--0--0--0--0--0--0--0--|-----0--0--0--0--0--0----
                                                           =20

    s     s  s  s  s  s  s  t  t  t     t  t  t  t  t  t   =20
E---0--|--0--0--0--0--0--0--0--0--0--|--0--0--0--0--0--0----
B---1--|--1--1--1--1--1--1--1--1--1--|--1--1--1--1--1--1----
G---0--|--0--0--0--0--0--0--0--0--0--|--0--0--0--0--0--0----
D---2--|--2--2--2--2--2--2--2--2--2--|--2--2--2--2--2--2----
A---3--|--3--3--3--3--3--3--3--3--3--|--3--3--3--3--3--3----
E---0--|--0--0--0--0--0--0--0--0--0--|--0--0--0--0--0--0----
                                                           =20

    t  t      End of Riff A                Riff B   t  t   =20
E---0--0--||--------------------------||------------0--0----
B---1--1--||--------------------------||------------0--0----
G---0--0--||--------------------------||*-----------0--0----
D---2--2--||--------------------------||*-----------2--2----
A---3--3--||--------------------------||------------2--2----
E---0--0--||--------------------------||------------0--0----
                                                           =20

    t  e  e  s  s        t  t  t  e  e  s  s     t  t  t   =20
E---0--0--0--0--0--|-----3--3--3--3--3--3--3--|--0--0--0----
B---0--0--0--0--0--|-----3--3--3--3--3--3--3--|--0--0--0----
G---0--0--0--0--0--|-----0--0--0--0--0--0--0--|--0--0--0----
D---2--2--2--2--2--|-----0--0--0--0--0--0--0--|--2--2--2----
A---2--2--2--2--2--|-----2--2--2--2--2--2--2--|--2--2--2----
E---0--0--0--0--0--|-----3--3--3--3--3--3--3--|--0--0--0----
                                                           =20

    e  e  s  s     Q  s  e  s  s  e   4x  End of Riff B    =20
E---0--0--0--0--|--3--3--3--3--3--3---||--------------------
B---0--0--0--0--|--3--3--3--2--2--2---||--------------------
G---0--0--0--0--|--0--0--0--3--3--3--*||--------------------
D---2--2--2--2--|--0--0--0--0--0--0--*||--------------------
A---2--2--2--2--|--2--2--2--0--0--0---||--------------------
E---0--0--0--0--|--3--3--3--x--x--x---||--------------------
                                                           =20
[ Tab from: http://www.guitartabs.cc/tabs/d/duncan_dhu/al_algun_lugar_tab.html ]
                               Interlude   t  t  s  Q      =20
E---------------------------|--------------0--0--0--r--|----
B---------------------------|--------------0--0--0--e--|----
G---------------------------|--------------0--0--0--s--|----
D---------------------------|--------------2--2--2--t--|----
A---------------------------|--------------2--2--2-----|----
E---------------------------|--------------0--0--0-----|----
                                                           =20

    Q  s  e  s  s  e       End of Interlude                =20
E---3--3--3--3--3--3---||-----------------------------------
B---3--3--3--2--2--2---||-----------------------------------
G---0--0--0--3--3--3--*||-----------------------------------
D---0--0--0--0--0--0--*||-----------------------------------
A---2--2--2--0--0--0---||-----------------------------------
E---3--3--3--x--x--x---||-----------------------------------
                                                           =20

                Lick 1   h   h  w          End of Lick 1   =20
E------------|--------------------------|-------------------
B------------|-----------12--8----------|-------------------
G------------|------------------9--(9)--|-------------------
D------------|--------------------------|-------------------
A------------|--------------------------|-------------------
E------------|--------------------------|-------------------
                                                           =20

             Lick 2      e  e  e   e   e  q   e   e   e    =20
E---------|----------------------------8--10--10--10--------
B---------|--------------8--8--10--12-----------------12----
G---------|-------------------------------------------------
D---------|-------------------------------------------------
A---------|-------------------------------------------------
E---------|-------------------------------------------------
                                                           =20

    e   e   q  e   e   e  e   e  e   e                     =20
E---10---------10---------10-------------||-----------------
B-------12--8------12--8------8--12--8---||-----------------
G---------------------------------------*||-----------------
D---------------------------------------*||-----------------
A----------------------------------------||-----------------
E----------------------------------------||-----------------
                                                           =20

    End of Lick 2                                          =20
E-----------------------------------------------------------
B-----------------------------------------------------------
G-----------------------------------------------------------
D-----------------------------------------------------------
A-----------------------------------------------------------
E-----------------------------------------------------------
                                                           =20

The song goes this way:=20
G1(acoustic):intro-riff a-riff bx2-=20
G2(e. with chorus):lick 1-lick 2-=20
G1:riff bx4-riff a-riff bx4-inter x4-=20
G2:         lick 1-lick 2x2-=20
G1:riff bx4-riff bx4-riff a-riff bx8-=20
G2:(solo?)           lick 1-lick 2x4-=20
G1:(outro)-riff bx8-(play the first mensure of the=20
interlude and end.)=20

Well thats it, my first TAB.=20
Complains, requests, doubths, or the solo:=20
Bueno alli esta, mi primera TAB.=20
Quejas, peticiones dudas o el solo:=20
al448482@academ01.cem.itesm.mx



=3D=3D=3D=3D=3D=3D=3D=3D=3D=3D=3D=3D=3D=3D=3D=3D=3D=3D=3D=3D=3D=3D=3D=3D=3D=
=3D=3D=3D=3D=3D=3D=3D=3D=3D=3D=3D=3D=3D=3D=3D=3D=3D=3D=3D=3D=3D=3D=3D=3D=3D=
=3D=3D=3D=3D=3D=3D=3D=3D=3D=3D
=3D=3D                 TABLATURE EXPLANATION                  =3D=3D
=3D=3D=3D=3D=3D=3D=3D=3D=3D=3D=3D=3D=3D=3D=3D=3D=3D=3D=3D=3D=3D=3D=3D=3D=3D=
=3D=3D=3D=3D=3D=3D=3D=3D=3D=3D=3D=3D=3D=3D=3D=3D=3D=3D=3D=3D=3D=3D=3D=3D=3D=
=3D=3D=3D=3D=3D=3D=3D=3D=3D=3D

----------                ----------                ----t---
----5h8--- Hammeron       ----(8)--- Ghost          ----6--- Tap
----------                ---------- Note           --------
----5p8--- Pulloff        ----------                --------

----------                ----------                -----p--
----5/8--- Slide Up       -----x---- Dead           -----7-- Pop
----------                ---------- Note           --s-----
----5\8--- Slide Down     ----------                --5----- Slap=20

----------                ||------|| Repeat         --------
----5~~~-- Vibrato        ||*----*||                ---5^--- Bend
----------                ||*----*||                --------
----------                ||------||                --------

----------                ----------                --------
-4:------- Time           ----------                --------
-4:------- Signature      ----------                --------
----------                ----------                --------

Rhythm:
  w =3D whole note            W =3D dotted whole
  h =3D half note             H =3D dotted half
  q =3D quarter note          Q =3D dotted quarter
  e =3D eighth note           E =3D dotted eighth
  s =3D sixteenth note        S =3D dotted sixteenth
  t =3D 32nd note             T =3D dotted 32nd
  x =3D 64th note             X =3D dotted 64th
  ^ =3D triplet