Dum Dums - Everything Chords & Tabs

 

Everything Chords & Tabs

Dum Dums Chords & Tabs

Version: 3 Type: Bass Tab 0 ratings
1 star 2 stars 3 stars 4 stars 5 stars
comments

Everything Bass Tab

   
Artist: DumDums
Song: Everything
Tabbed by: Dan Rowden

***  bass-tabs.co.uk - http://www.bass-tabs.co.uk  ***

Intro:                     (x3)
G|----------------------------|
D|----------------------------|
A|-----------------2--1--2--2-|
E|-2-2---2-4-4--4-------------|

G|----------------------------------|
D|----------------------------------|
A|-----------------2--1--2----2-----|
E|-2-2---2-4-4--4-------------------|

Verse:
G|----------------------------|
D|-4------2-----------2-------|
A|----4------2--2--------4----|
E|----------------4-----------|

Chorus 1:                  (x3)
G|----------------------------|
D|----------------------------|
A|-----------------2--1--2--2-|
E|-2-2---2-4-4--4-------------|
[ Tab from: http://www.guitartabs.cc/tabs/d/dum_dums/everything_btab_ver_3.html ]
G|---------------------------------|
D|-----------------4-3-1---1-------|
A|---------------------------4-2---|
E|-2-2---2-4-4--4------------------|

Middle Riff:               (x2)
G|----------------------------|
D|----------------------------|
A|-----------------2--1--2--2-|
E|-2-2---2-4-4--4-------------|

Middle 8:
G|-------------------------------------------------|
D|-------------------------------------------------|
A|-5-5-5-5-4-4-4-4-2-2-2-2-4-4-4-4-5-5-5-5-7-7-7-7-|
E|-------------------------------------------------|

Chorus 2:                  (x4)
G|----------------------------|
D|----------------------------|
A|-----------------2--1--2--2-|
E|-2-2---2-4-4--4-------------|


Song order:

Intro
Verse Riff (x4)
Chorus 1
Middle Riff
Verse Riff (x4)
Chorus 1
Middle 8
Chorus 2
Chorus 1


Any comments or suggestions? dan@bass-tabs.co.uk
Visit my website at http://www.bass-tabs.co.uk
Comments