Dry Kill Logic - Track 13 Chords & Tabs

 

Track 13 Chords & Tabs

Dry Kill Logic Chords & Tabs

Version: 1 Type: Tab 0 ratings
1 star 2 stars 3 stars 4 stars 5 stars
comments

Track 13 Tab

----------------------------------------------------------------------
			     TRACK 13 - DRY KILL LOGIC
----------------------------------------------------------------------

Tabbed By: Greg Burchett (gbvegas@hotmail.com)

Tuning:Drop D  

Intro/Verse1:
Play 3 Times 

E|-----------------------------------------------------------------|
B|-----------------------------------------------------------------|
G|-----------------------------------------------------------------|
D|-5-------5-----5-----7-7-7-8-7p5-5-------5-----5-----7-7-7-8-7p5-| 
A|-5h6-6-6-6-6-6-6-5-5-5-5-5-5-5---5h6-6-6-6-6-6-6-5-5-5-5-5-5-5---|
D|-----------------------------------------------------------------|

E|-----------------------------------------------------------------|
B|-----------------------------------------------------------------|
G|-----------------------------------------------------------------|
D|-5-------5-----5-----7-7-7-8-7p5-5-------5--5-5-5-5-5--5-5-------|
A|-5h6-6-6-6-6-6-6-5-5-5-5-5-5-5---5h6-6-6-6--6-6-6-6-6--6-6-------|
D|-----------------------------------------------------------------|

Chorus:

E|--------------------------------------------------|
B|--------------------------------------------------|
G|--------------------------------------------------|
D|-0-1-1-1-1----1--0----0----0-1-1-1-1----1--0----0-|
A|-0-1-1-1-1--0-1--0-0--0----0-1-1-1-1--0-1--0-0--0-|
D|-0-1-1-1-1--0------0-------0-1-1-1-1--0------0----|

E|--------------------------------------------------|
B|--------------------------------------------------|
G|--------------------------------------------------|
D|-0-1-1-1-1----1--0----0----0-1-1-1-1--0-1-1-1-1---|
A|-0-1-1-1-1--0-1--0-0--0----0-1-1-1-1--0-1-1-1-1---|
D|-0-1-1-1-1--0------0-------0-1-1-1-1--0-1-1-1-1---|

Intro/Verse2:
Play 3 Times

E|-----------------------------------------------------------------|
B|-----------------------------------------------------------------|
G|-----------------------------------------------------------------|
D|-5-------5-----5-----7-7-7-8-7p5-5-------5-----5-----7-7-7-8-7p5-|
A|-5h6-6-6-6-6-6-6-5-5-5-5-5-5-5---5h6-6-6-6-6-6-6-5-5-5-5-5-5-5---|
D|-----------------------------------------------------------------|

E|-----------------------------------------------------------------|
B|-----------------------------------------------------------------|
G|-----------------------------------------------------------------|
D|-5-------5-----5-----7-7-7-8-7p5-5-------5--5-5-5-5-5--5-5-------|
A|-5h6-6-6-6-6-6-6-5-5-5-5-5-5-5---5h6-6-6-6--6-6-6-6-6--6-6-------|
D|-----------------------------------------------------------------|

Chorus:
Play 2 Times

E|-------------------------------------------------------|
B|-------------------------------------------------------|
G|-------------------------------------------------------|
D|-0-1-1-1-1----1--0----0----0-1-1-1-1----1--0----0------|
A|-0-1-1-1-1--0-1--0-0--0----0-1-1-1-1--0-1--0-0--0------|
D|-0-1-1-1-1--0------0-------0-1-1-1-1--0------0---------|
[ Tab from: http://www.guitartabs.cc/tabs/d/dry_kill_logic/track_13_tab.html ]
E|-------------------------------------------------------|
B|-------------------------------------------------------|
G|-------------------------------------------------------|
D|-0-1-1-1-1----1--0----0----0-1-1-1-1--0-1-1-1-1--0-1-1-|
A|-0-1-1-1-1--0-1--0-0--0----0-1-1-1-1--0-1-1-1-1--0-1-1-|
D|-0-1-1-1-1--0------0-------0-1-1-1-1--0-1-1-1-1--0-1-1-|

Bridge:

E|--------------------------------------------------------|
B|--------------------------------------------------------|
G|--------------------------------------------------------|
D|-7-7-8-7--7--7--7--7-8-7-8----7-7-8-7--7--7--7--7-8-7-8-|
A|-7-7-8-7--7--7--7--7-8-7-8----7-7-8-7--7--7--7--7-8-7-8-|
D|-7-7-8-7--7--7--7--7-8-7-8----7-7-8-7--7--7--7--7-8-7-8-|

E|--------------------------------------------------------|
B|--------------------------------------------------------|
G|--------------------------------------------------------|
D|-7-7-8-7--7--7--7--7-8-7-8----7-7-8-7--7--7--7--7-8-7-8-|
A|-7-7-8-7--7--7--7--7-8-7-8----7-7-8-7--7--7--7--7-8-7-8-|
D|-7-7-8-7--7--7--7--7-8-7-8----7-7-8-7--7--7--7--7-8-7-8-|

E|-----------------------------------------------------------------|
B|-----------------------------------------------------------------|
G|-----------------------------------------------------------------|
D|-5-------5-----5-----7-7-7-8-7p5-5-------5-----5-----7-7-7-8-7p5-|
A|-5h6-6-6-6-6-6-6-5-5-5-5-5-5-5---5h6-6-6-6-6-6-6-5-5-5-5-5-5-5---|
D|-----------------------------------------------------------------|

E|-----------------------------------------------------------------|
B|-----------------------------------------------------------------|
G|-----------------------------------------------------------------|
D|-5-------5-----5-----7-7-7-8-7p5-5-------5--5-5-5-5-5--5-5-------|
A|-5h6-6-6-6-6-6-6-5-5-5-5-5-5-5---5h6-6-6-6--6-6-6-6-6--6-6-------|
D|-----------------------------------------------------------------|

E|--------------------------------------------------|
B|--------------------------------------------------|
G|--------------------------------------------------|
D|-0-1-1-1-1----1--0----0----0-1-1-1-1----1--0----0-|
A|-0-1-1-1-1--0-1--0-0--0----0-1-1-1-1--0-1--0-0--0-|
D|-0-1-1-1-1--0------0-------0-1-1-1-1--0------0----|

E|--------------------------------------------------|
B|--------------------------------------------------|
G|--------------------------------------------------|
D|-0-1-1-1-1----1--0----0----0-1-1-1-1--0-1-1-1-1---|
A|-0-1-1-1-1--0-1--0-0--0----0-1-1-1-1--0-1-1-1-1---|
D|-0-1-1-1-1--0------0-------0-1-1-1-1--0-1-1-1-1---|

End Of Song:


  And I will say what's on my mind
  If I can find my way from here
  Or I will stay a fallen man
  If I can't find my where from here

  Zero nothing and then left to die
  Could I have everything here with no surprise?
  Would I? Turn back the changes, and yet we try, 
  abandon all abandon all on the inside

  Now I see the light

  And I will say what's on my mind
  If I can find my way from here
  Or I will stay a fallen man
  If I can't find my where from here

  Zero nothing and then left to die
  Could I have everything here with no surprise?
  Would I? Turn back the changes, and yet we try, should I abandon all abandon 
  all that is mine
  Never again will I walk the line, more than spirits inside they're no friend 
  of mine this is the same name I can't come to grips with it, and now I feel, 
  and now I feel dismissed

  Now I see the light

======================================================================
Comments