Dry Cell - Body Crumbles Chords & Tabs

 

Body Crumbles Chords & Tabs

Dry Cell Chords & Tabs

Version: 5 Type: Bass Tab 0 ratings
1 star 2 stars 3 stars 4 stars 5 stars
comments

Body Crumbles Bass Tab

   
-------------------------------------------------------------------------------
			  BODY CRUMBLES - Dry Cell
-------------------------------------------------------------------------------

Tabbed By : KoRnKid89
e-mail: XBlytheX89@aol.com

Tuning: standard

  Intro:
G|--6-----6--6h8--9--8--6--|------9-----8--8--6--|
D|-----6-------------------|--7-----6------------|
A|-------------------------|---------------------|
E|-------------------------|---------------------|

G|--6-----6--6h8--9--8--6--|--9--h10-8--h9--8--6--|
D|-----6-------------------|----------------------|
A|-------------------------|----------------------|
E|-------------------------|----------------------|
  (x2)

  
  Verse:
G|--6-----6--6h8--9--8--6--|------9-----8--8--6--|
D|-----6-------------------|--7-----6------------|
A|-------------------------|---------------------|
E|-------------------------|---------------------|

G|--6-----6--6h8--9--8--6--|--9--h10-8--h9--8--6--|
D|-----6-------------------|----------------------|
A|-------------------------|----------------------|
E|-------------------------|----------------------|

G|--6-----6--6h8--9--8--6--|------9-----8--8--6--|
D|-----6-------------------|--7-----6------------|
A|-------------------------|---------------------|
E|-------------------------|---------------------|
   
G|--6-----6--6h8--9--8--6--|--9~------------------|
D|-----6-------------------|----------------------|
A|-------------------------|----------------------|
E|-------------------------|----------------------|


[ Tab from: http://www.guitartabs.cc/tabs/d/dry_cell/body_crumbles_btab_ver_5.html ]
  Chorus:
G|----------------------------|----------------------------|
D|----------------------------|----------------------------|
A|----------------------------|----------------------------|
E|--9--9--9h11-11-11--11--11--|--7--7--7h10-10-10--10--10--| (x3)

G|----------------------------|----------------------------|
D|----------------------------|----------------------------|
A|----------------------------|----------------------------|
E|--9--9--9h11-11-11--11--11--|--8-------------------------|


  Bridge:
G|----------------------|----------------------|
D|----------------------|----------------------|
A|----------------------|----------------------|
E|--5--5--55-5-5--5--5--|--0--0--00-0-0--0--0--| (x5)

G|----------------------|----------------------|
D|----------------------|----------------------|
A|----------------------|----------------------|
E|--5--5--55-5-5--5--5--|--0-------------------|

  (x2)


  Outro:
G|--6-----6--6h8--9--8--6--|------9-----8--8--6--|
D|-----6-------------------|--7-----6------------|
A|-------------------------|---------------------|
E|-------------------------|---------------------|

G|--6-----6--6h8--9--8--6--|--9--h10-8--h9--8--6--|
D|-----6-------------------|----------------------|
A|-------------------------|----------------------|
E|-------------------------|----------------------| 
 
 (Repeat as song fades out)



| /  slide up
| \  slide down
| h  hammer-on
| p  pull-off
| ~  vibrato
| +  harmonic
| x  Mute note
===============================================================================
Comments