Dry Cell - Body Crumbles Chords & Tabs

 

Body Crumbles Chords & Tabs

Dry Cell Chords & Tabs

Version: 4 Type: Bass Tab 0 ratings
1 star 2 stars 3 stars 4 stars 5 stars
comments

Body Crumbles Bass Tab

this song was done with a 4-string but i think a 5-string is used, the sound is
stil good and the intro is rite on cept for a  very very small variation he uses
that im still trying to figure out.

Intro:                              x4-Do This on 4th time-
E------------------------------------|---------|
A------------------------------------|---------|
D---6-----97-6--9--6-----9---------9-|-6-----9-|
G--6-6-898--9-98--6-6-898-9-11-8-98--|6-6-898-9|
[ Tab from: http://www.guitartabs.cc/tabs/d/dry_cell/body_crumbles_btab_ver_4.html ]
Chorus:                    Repeat at end
E-----------00000--------------00000---|
A-44444-000----------44444-000------222|
D-----------------000------------------|
G--------------------------------------|

Bridge:             Repeat                                    Repeat
E--------0-0-------------|----------0000000000---------------------|
A-0-0-----------4-4---4-4|0000000000----------44444444444444444444-|
D------------------------|-----------------------------------------|
G------------------------|-----------------------------------------|

any questions, comments... wutever  email me   citykid41@hotmail.com
Comments