Drowning Pool - Tear Away Chords & Tabs

 

Tear Away Chords & Tabs

Drowning Pool Chords & Tabs

Version: 1 Type: Tab 0 ratings
1 star 2 stars 3 stars 4 stars 5 stars
comments

Tear Away Tab

   
Song: Tear Away
Artist: Drowning Pool
Album: Sinner
Tabbed by: Lew Aaron Manalang
email: freakazoid_trex@hotmail.com

Tuning: drop D then one step down 
(C-G-C-F-A-D)

Intro and part of first(first part of verse 1) verse
||-----------------------------------||
||-----------------------------------||
||--8-8-8-8-8/7----7---7-------------||
||--x-x-x-x-x/x----X---x-------------||
||--6-6-6-6-6/5--0-5-0-5-0--0-0-0--0-||
||---------------0---0---0--0-0-0--0-||
                 .   .   .  . . .  . 

this one comes after he goes "BREAK!!!"
||--------------------------------------------------||
||--------------------------------------------------||
||--14-14--14-14--14-14--14-14-14/12-12-12-12-12-12-||
||---x--x---x--x---x--x---x--x--x--x--x--x--x--x--x-||
||--12-12--12-12--12-12--12-12-12/10-10-10-10-10-10-||
||--------------------------------------------------||

||-------------------------||
||-------------------------||
||-11-11--11-11-11-11/7--7-||
||-x--x---x--x--x--x--x--x-||
||-9--9---9--9--9--9/-5--5-||
||-------------------------||

Verse Guitar 1
||-----------------------------------------||
||-----------------------------------------||
||--------------------8-8-8-8-8/7----------||
||--------------------x-x-x-x-x/x----------||
||-0-0--0-0-000--0-0--6-6-6-6-6/5----------||
||-0-0--0-0-000--0-0-----------------------||
   . .  . . ...  . .
[ Tab from: http://www.guitartabs.cc/tabs/d/drowning_pool/tear_away_tab.html ]
Verse Guitar 2
||-----------------------------------------||
||-----------------------------------------||
||-----------------------------------------||
||-----------------------------------------||
||-0-0--0-0-000--0-0--1-1-1-1-1-1-1-1-1----||
||-0-0--0-0-000--0-0--1-1-1-1-1-1-1-1-1----||
   . .  . . ...  . .  . . . . . . . . .

Chorus guitar 1
||-----------------------------------------||
||-----------------------------------------||
||------7---7---7--------------------------||
||--0-0-x-0-x-0-x-0--8-8-8-8-8-8--5-5-5-5--||
||--0-0-5-0-5-0-5-0--8-8-8-8-8-8--5-5-5-5--||
||--0-0---0---0---0--8-8-8-8-8-8--5-5-5-5--||

Chorus guitar 2
||-----------------------------------------||
||-----------------------------------------||
||-----------------------------------------||
||--0-0-0-0-0-0-0-0--8-8-8-8-8-8--5-5-5-5--||
||--0-0-0-0-0-0-0-0--8-8-8-8-8-8--5-5-5-5--||
||--0-0-0-0-0-0-0-0--8-8-8-8-8-8--5-5-5-5--||

||-----------------------------------||
||-----------------------------------||
||-----------------------------------||
||--1-0--1-0--1-0----1-0--1-0--1-0---||
||--1-0--1-0--1-0----1-0--1-0--1-0---||
||--1-0--1-0--1-0----1-0--1-0--1-0---||

I haven't figured out the solo part... i suck at solos

Outro
||---------------------------------------||
||---------------------------------------||
||--------7-----------7----------------7-||
||------0---0-------0---0------8-----5---||
||----5-------5---5----------8-----5-----||
||-0------------0----------8-----5-------||

Last last part
||---||
||---||
||---||
||-5-||
||-5-||
||-5-||

if you have any corrections, email me... my email is up there, ok?

ooh, if you gonna play this song in standard tuning, the chords are
C, G#, and E... hehe... sounds cool if it's in acoustic, lol

Comments