Drowning Pool - Sinner Chords & Tabs

 

Sinner Chords & Tabs

Drowning Pool Chords & Tabs

Version: 1 Type: Tab 0 ratings
1 star 2 stars 3 stars 4 stars 5 stars
comments

Sinner Tab

Song:SinNer
Artist:Drowning Pool
Album:siNNer
Tabbed by:Robert Tyler   Questions e-mail me at DrowningRedneck@aol.com
Tuning:DADGBE
                      Note:Listen to the song to get the rythem,you may play the notes more times than noted.
Overall this sounds correct.   ^ =Palm Mute

Intro(distortion)
        /--------------2X-----------\
E-----------------------------------------------------------------------------------------------------|
B-----------------------------------------------------------------------------------------------------|
G-----------------------------------------------------------------------------------------------------|
D-X--0---3/4--4/5--5--5--5--5------5---5----------------------------------------------------------|
A-X--0---1/2--2/3--3--3--3--3------3---3-------0-0---2-2-----------------------------------------|
D-X--0-----------------------------------------0-0---2-2-----------------------------------------|

2nd Part of Intro w/ Wah Wah

E----------------------------------------------------------------------------------------------------|
B----------------------------------------------------------------------------------------------------|
G----------------------------------------------------------------------------------------------------|
D---3---5-5-5-5-5----------------------------------------------------------------------------------|
A---1---3-3-3-3-3----------------------------------------------------------------------------------|
D----------------------------------------------------------------------------------------------------|

Verse   Distortion
[ Tab from: http://www.guitartabs.cc/tabs/d/drowning_pool/sinner_tab.html ]
E-----------------------------------------------------------------------------------------------------|
B-----------------------------------------------------------------------------------------------------|
G--^--^----------------------------------------------------------------------------------------------|
D--0-0---1-------------------------------------------------------------------------------------------|
A--0-0---1-------------------------------------------------------------------------------------------|
D--0-0---1-------------------------------------------------------------------------------------------|

Pre Chorus  (not sure about)

E-----------------------------------------------------------------------------------------------------|
B-----------------------------------------------------------------------------------------------------|
G-----------------------------------------------------------------------------------------------------|
D-----------------------------------------------------------------------------------------------------|
A-----------------------------------------------------------------------------------------------------|
D-0--1/2-3/4-5/6-6----------------------------------------------------------------------------------|

Chorus

E-----------------------------------------------------------------------------------------------------|
B-----------------------------------------------------------------------------------------------------|
G-----------------------------------------------------------------------------------------------------|
D---0--4-4-4-4-4--2---1---1------------------------------------------------------------------------|
A---0--2-2-2-2-2--2---1---1------------------------------------------------------------------------|
D---0-------------2---1---1------------------------------------------------------------------------|

Bridge:W/ Wah slowly move the wah pedal foreward|
                                                                                
E------------------------------------------------------------------------------------------------------|
B------------------------------------------------------------------------------------------------------|
G------------------------------------------------------------------------------------------------------|
D----------------------------------------------------------------------5---3---------------------------|
A----------------------------------------------------------------------3---1---------------------------|
D--1-1-1/2-1-1-1/2-1---------------------------------------------------------------------------------|
Comments