Drowning Pool - Reminded Chords & Tabs

 

Reminded Chords & Tabs

Drowning Pool Chords & Tabs

Version: 1 Type: Tab 0 ratings
1 star 2 stars 3 stars 4 stars 5 stars
comments

Reminded Tab

   
Band- Drowning Pool
Song- Reminded

Tuning: Drop C (C G C F A D)

Intro
D  ----------------------------------------------------------|
A  ----------------------------------------------------------|
F  ----------------------------------------------------------|
C  ----------------------------------------------------------|  3x
G  ----------------------------------------------------------|
C  ---7-7-7\5-5-5/8-8-8\5-5-5/7-7\5/7-7-7-5/8-8-8\5-5-5------|

2nd Intro, sort of like Chorus
D  --------------------------------|
A  --------------------------------|
F  --------------------------------|   2x
C  ---7-7-5--8-5--7-5-7-7-5-8-5----|
G  ---7-7-5--8-5--7-5-7-7-5-8-5----|
C  ---7-7-5--8-5--7-5-7-7-5-8-5----|

D  ----------------------|
A  ----------------------|
F  ----------------------|
C  ---9\7/10\-7-/5\-7----|   	Repeat this until verse starts....
G  ---7\5/-8-\-5/-7\-5---|
C  ----------------------|

Verse, ALL PALM MUTED EXEPT FOR THE LAST NOTE, ---> (5) <----|
D  ----------------------------------------------------------|
A  ----------------------------------------------------------|
F  ----------------------------------------------------------|
C  ---7-7-5-5--8-8-5-5--7-7-5--8-8-5-5--7-7-5-5--------------|
G  ---7-7-5-5--8-8-5-5--7-7-5--8-8-5-5--7-7-5-5--------------|
C  ---7-7-5-5--8-8-5-5--7-7-5--8-8-5-5--7-7-5-5--------------|
[ Tab from: http://www.guitartabs.cc/tabs/d/drowning_pool/reminded_tab.html ]
D  -----------------------------------------------------------|
A  -----------------------------------------------------------|
F  -----------------------------------------------------------|
C  8-8-5--7-7-5--7-7-5-5--8-8-5-5--7-7-5--8-8-5-7-7-(5)-------|  x2
G  8-8-5--7-7-5--7-7-5-5--8-8-5-5--7-7-5--8-8-5-7-7-(5)-------|
C  8-8-5--7-7-5--7-7-5-5--8-8-5-5--7-7-5--8-8-5-7-7-(5)-------|

Chorus

D  ------------------|
A  ------------------|
F  ------------------| x 4
C  ---7-7\5/8-0-0-0--|
G  ---7-7\5/8-0-0-0--|
C  ---7-7\5/8-0-0-0--|

D  ----------------------|
A  ----------------------|
F  ----------------------|
C  ----------------------|
G  9\7/10\7/9\7----------|
C  7\5/-8\5/7\5----------|

D  --------------------|
A  --------------------|
F   -------------------|
C  --------------------| On last time do this   (except for end of song)
G  10------------------|
C  -8------------------|

Verse

Chorus

Bridge
D  ------------------------------------------|
A  ------------------------------------------|
F  ------------------------------------------|   x3
C  555555555-/-777--000000000000-777\--------|
G  333333333-/-555--000000000000-555\--------|
C  ------------------------------------------|

D  ---------------------|
A  ---------------------|
F  ---------------------|
C  55555555---555--0----|
G  33333333---333--0----|
C  -----------xxx--0----|

Intro
2nd Part Of Chorus
Verse
Chorus
Bridge
Chorus

End With
D -----------|
A -----------|
F -----------|
C -000-------|
G -000-------|
C -xxx-------|
Comments