Drowning Pool - Mute Chords & Tabs

 

Mute Chords & Tabs

Drowning Pool Chords & Tabs

Version: 1 Type: Tab 0 ratings
1 star 2 stars 3 stars 4 stars 5 stars
comments

Mute Tab

Drowning Pool - Mute
Drop D down 1 step
Tabbed by puppetz_85
for more tabs: go.to/tab_zone

Intro
clean w/phaser
|----------------------------------------------------|
|----------------------------------------------------|
|----------------------------------------------------|
|-------2----3--3--3--3---5--------2----3--3--3---0--|
|-----2------3--3--3--3---5------2------3--3--3---0--|
|-0h2-----3--3--3--3--3---5--0h2-----3--3--3--3---0--|

Pre-Verse (dist. w/wah), Verse (clean)
|--------------------------------------------------|
|--------------------------------------------------|
|-7\9--9--9--10-10-10-12---7\9--9--9--10-10-10-7---|
|--------------------------------------------------|
|-5\7--7--7--8--8--8--10---5\7--7--7--8--8--8--5---|
|--------------------------------------------------|

Fill 1
|------------------|
|------------------|
|--7\9--9--9~~~~---|
|------------------|
|--5\7--7--7~~~~---|
|------------------|

Post-Verse
p.m.......   ............    .......    ....
|--------------------------------------------------|
|--------------------------------------------------|
|--------------------------------------------------|
|--0h2--2--2--3--3--5--5--5--0h2--2--2--3--3--0----|
|--0h2--2--2--3--3--5--5--5--0h2--2--2--3--3--0----|
|--0h2--2--2--3--3--5--5--5--0h2--2--2--3--3--0----|
[ Tab from: http://www.guitartabs.cc/tabs/d/drowning_pool/mute_tab.html ]
Pre-Chorus
p.m......            ......
|----------------------------------------|
|----------------------------------------|
|------------9--7-10-----------9--7-12---|
|----------------------------------------|
|--0-0-0--0--7--5-8--0-0-0--0--7--5-10---|
|--0-0-0--0----------0-0-0--0------------|

Chorus
        p.m..       ....                ....       .....
|-------------------------------------------------------------|
|-------------------------------------------------------------|
|-------------------------------------------------------------|
|--2----2--2---3----3--3---5--5----2----2--2---3----3--3---0--|
|--2----2--2---3----3--3---5--5----2----2--2---3----3--3---0--|
|--2----2--2---3----3--3---5--5----2----2--2---3----3--3---0--|

Solo
  //  //   //  //  //  //  //
|-0--\12--/1--\13--15--0--\12--12h13p12\10--10h12p10\8--8h10p8\7--|
|-----------------------------------------------------------------|
|-----------------------------------------------------------------|
|-----------------------------------------------------------------|
|-----------------------------------------------------------------|
|-----------------------------------------------------------------|

w/wah
|--12-------------------------------------------------------------|
|--15b--12---14-14-14-14-12-12-12-12-------------------------12~~-|
|-------14b--14-14-14-14-12-12-12-12-------------------------14b~-|
|------------------------------------14-14-14-14-12-12-12-12------|
|-----------------------------------------------------------------|
|-----------------------------------------------------------------|
Comments