Drowning Pool - Love And War Chords & Tabs

 

Love And War Chords & Tabs

Drowning Pool Chords & Tabs

Version: 1 Type: Tab 0 ratings
1 star 2 stars 3 stars 4 stars 5 stars
comments

Love And War Tab

   
-----------------------------------------------------------------------
"Love and War" - Drowning Pool
-----------------------------------------------------------------------
Tabbed by: Ryan
Album: Desensitized
Tuning: B F# B E G# C#

Intro/Verse (clean)
||-------------------------------------------------||
||-------------------------------------------------||
||-------0-----------0-----------0-----------0-----||
||-----0-----------0-----------0---0-------0-------||
||---5-------0-1-5-----------5-------0-1-5---------||
||-0---------------------3-5---------------------3-||

Verse 2nd Half (dist.)
||--------------------------------------------------------------------|
||--------------------------------------------------------------------|
||--------------------------------------------------------------------|
||-/--0----8----3-5----8----0p3---0----8----3-5-5-5-5-5-5-5-5-5-------|
||-/--0----8----3-5----8----0p3---0----8----3-5-5-5-5-5-5-5-5-5-------|
||-/--0----8----3-5----8----0p3---0----8----3-5-5-5-5-5-5-5-5-5-------|

|---------------||
|---------------||
|---------------||
|-8-8-8-8-8-8-8-||
|-8-8-8-8-8-8-8-||
|-8-8-8-8-8-8-8-||

Chorus
||--------------------------------------------------------------------|
||--------------------------------------------------------------------|
||--------------------------------------------------------------------|
||-0-0-0----3-3-3-3-3-3-3-3-5-5-5-5-5-5-5-5-3-3-3-3-3-3-3-3-0-0-0-0---|
||-0-0-0----3-3-3-3-3-3-3-3-5-5-5-5-5-5-5-5-3-3-3-3-3-3-3-3-0-0-0-0---|
||-0-0-0----3-3-3-3-3-3-3-3-5-5-5-5-5-5-5-5-3-3-3-3-3-3-3-3-0-0-0-0---|

|---------------------------------------------------------||
|---------------------------------------------------------||
|---------------------------------------------------------||
|-xx-x----3-3-3-3-3-3-3-3-5-5-5-5-5-5-5-5-3-3-3-3-3-3-3-3-||
|-xx-x----3-3-3-3-3-3-3-3-5-5-5-5-5-5-5-5-3-3-3-3-3-3-3-3-||
|-xx-x----3-3-3-3-3-3-3-3-5-5-5-5-5-5-5-5-3-3-3-3-3-3-3-3-||
[ Tab from: http://www.guitartabs.cc/tabs/d/drowning_pool/love_and_war_tab.html ]
Pre-Verse
||--------------------------------||
||--------------------------------||
||--------------------------------||
||-0----8----3-5--5-5-8-7-5-7-5-3-||
||-0----8----3-5--5-5-8-7-5-7-5-3-||
||-0----8----3-5--5-5-8-7-5-7-5-3-||





Bridge
||-----------------------||
||-----------------------||
||-----------5-----------||
||-0----3----5----5----3-||
||-0----3----3----5----3-||
||-0----3---------5----3-||


Solo (play with neck-position humbucker)
||--------------------------------------------------------------------|
||--------------------------------------------------------------------|
||----------------------10-12-10--------------------------------------|
||---19^(21)19----10h12---------12-10-12--12^(12)-10-12-10-10--------|
||--------------------------------------------------------13----13-12-|
||-0------------------------------------------------------------------|


|---------------------------------------------------------------------|
|---/15-15-15-18-15-15-20-15-15-17-15-15-18-15-15-17-17-17-17h18-15---|
|---------------------------------------------------------------------|
|---------------------------------------------------------------------|
|---------------------------------------------------------------------|
|---------------------------------------------------------------------|

|-------------------------------||
|-17p15-15-15-------------------||
|-------------14^(15)14----14/7-||
|-------------------------------||
|-------------------------------||
|-------------------------------||

Breakdown
||-------------------------------------------------------------------||
||-------------------------------------------------------------------||
||-------------------------------------------------------------------||
||---------------------------------------------------8-8-8-8-8-8-8-8-||
||---------------------------------------------------8-8-8-8-8-8-8-8-||
||-0-0-0-0-0-0-0-0-8-8-8-8-8-8-8-8-3-5-5-5-5-5-5-5-5-8-8-8-8-8-8-8-8-||
p.m'''''''''''''''''''''''''''''''''''''''''''''''''


Order:
Intro
Verse
Verse 2nd Half
Chorus
Pre-Verse
Verse
Verse 2nd Half
Chorus
Bridge
Solo (Rhythm guitar plays Pre-Verse x2)
Breakdown
Chorus
Bridge
-End-
Comments