Drowning Pool - I Am Chords & Tabs

 

I Am Chords & Tabs

Drowning Pool Chords & Tabs

Version: 1 Type: Tab 0 ratings
1 star 2 stars 3 stars 4 stars 5 stars
comments

I Am Tab

   
Band- Drowning Pool
Song- I Am

Tuning: Drop C (C G C F A D)

This song has two guitars, this tab only covers one of them.

Intro:  x1
D  -----------------------------------------------|
A  -----------------------------------------------|
F  -----------------------------------------------|
C  000--------0000--------0000-----0-66-0-53------|
G  000--------0000--------0000-----0-66-0-53------|
C  000-(4)----0000-(4)----0000-(4)-0-66-0-53------|

D  -----------------------------------------------|
A  -----------------------------------------------|
F  -----------------------------------------------|
C  000-(3)----0000-(3)----0000-(3)-0-66-0-53------|
G  000-(3)----0000-(3)----0000-(3)-0-66-0-53------|
C  000-(3)----0000-(3)----0000-(3)-0-66-0-53------|

Riff 1: x4
D  ---------------------------|
A  ---------------------------|
F  ---------------------------|
C  003--003--003--66-0-53-----|
G  003--003--003--66-0-53-----|
C  003--003--003--66-0-53-----|

D  -------------------------|
A  -------------------------|
F  -------------------------|
C  0*-----------------------|
G  0*-----------------------|
C  0*-----------------------|
[ Tab from: http://www.guitartabs.cc/tabs/d/drowning_pool/i_am_tab.html ]
Riff 2: x2
D  --------------------------------------------------------------------|
A  --------------------------------------------------------------------|
F  --------------------------------------------------------------------|
C  15--0--12--0---15--0--12--0---15--0--12--0---16h17-17-16-16---------|
G  15--0--12--0---15--0--12--0---15--0--12--0---16h17-17-16-16---------|
C  15--0--12--0---15--0--12--0---15--0--12--0---16h17-17-16-16---------|

D  -----------------------------------------------------------------|
A  -----------------------------------------------------------------|
F  -----------------------------------------------------------------|
C  15--0--12--0---15--0--12--0---15--0--12--0---10-10-10-10---------|
G  15--0--12--0---15--0--12--0---15--0--12--0---10-10-10-10---------|
C  15--0--12--0---15--0--12--0---15--0--12--0---10-10-10-10---------|

Riff 3 (Chourus)
D  --------------------------------------------   ----------------------------------|
A  --------------------------------------------   ----------------------------------|
F  ------------------------------------------x2   -------------------------------x2-|
C  00-xxx-00-xxx-00-xxx--00-66-0-53------------   003--003--003--66-0-53------------|
G  00-xxx-00-xxx-00-xxx--00-66-0-53------------   003--003--003--66-0-53------------|
C  00-xxx-00-xxx-00-xxx--00-66-0-53------------   003--003--003--66-0-53------------|

D  -----------------------|
A  -----------------------|
F  -----------------------|
C  0*---------------------|
G  0*---------------------|
C  0*---------------------|

Riff 2

Riff 3 (Chourus)

Riff 4: x4
D  --------------------|
A  --------------------|
F  --------------------|
C  2/8\2/8\2/8-8-8-8-8-|
G  2/8\2/8\2/8-8-8-8-8-|
C  2/8\2/8\2/8-8-8-8-8-|

During solo do Riff 1

Riff 4
Riff 3 (Chourus)
Intro
Comments