Dropkick Murphys - Walk Away Chords & Tabs

 

Walk Away Chords & Tabs

Dropkick Murphys Chords & Tabs

Version: 1 Type: Tab 0 ratings
1 star 2 stars 3 stars 4 stars 5 stars
comments

Walk Away Tab

:Dropkick Murphys::
.Walk Away..

Tabbed by: Johnny Arson
email: johnnyarson33@punkhardcore.net

Tuning: Standard EADGBe

From their new album "Blackout". I tabbed out this song myself. Feel free to correct. 
The solo I haven't tabbed cuz I can only hear a couple notes so I'll probably put it up later or 
forget about it. If you get it feel free to add it or whatever.

**[Listen to the song to find out the srumming pattern]**


Intro - Guitar 1 (rythm) - Palm Muted
|---------------------------------|
|---------------------------------|
|-4-----2-----4-----------2-------|
|-4-----2-----4-----4-----2-----2-|
|-2-----0-----2-----4-----0-----2-|
|-------|-----------2-----------0-|
(Play once during intro)     

Mid Intro - Guitar 2 (lead)
|---------------------------------|
|---------------------------------|
|-4/8-8\6--66/8-8\4---------------|
|---------------------------------|
|---------------------------------|
|---------------------------------|


Verse 1 - Both Guitars - Palm Muted 
|---------------------------------|
|---------------------------------|
|-4-----------------------4-------|
|-4-----4-----2-----4-----4-------|
|-2-----4-----2-----4-----2-------|
|-------2-----0-----2-------------|




End of Verse 1 - Guitar 2
|----------------------------------------------------------|
|----------------------------------------------------------|
|-44434443444346-66646664666468-9998999894/8-8\6--66/8-8\4-|
|----------------------------------------------------------|
|----------------------------------------------------------|
|----------------------------------------------------------|

Verse 1 - Both Guitars - Palm Muted
|---------------------------------|
|---------------------------------|
|-4-----------------------4-------|
|-4-----4-----2-----4-----4-------|
|-2-----4-----2-----4-----2-------|
|-------2-----0-----2-------------|




Bridge - Both Guitars
|---------------------------------|
|---------------------------------|
|-------4-----------------4-------|
|-4-----4-----2-----4-----4-------|
|-4-----2-----2-----4-----2-------|
|-2-----------0-----2-------------|
               

[ Tab from: http://www.guitartabs.cc/tabs/d/dropkick_murphys/walk_away_tab.html ]
 
|------------------------||-----------------|
|------------------------||-----------------|
|-6-----4----------------||---------4-----6-|
|-6-----4----------------||---4-----4-----6-|
|-4-----2----------------||---4-----2-----4-|
|-|-----|----------------||---2-----------|-|
(Let ring out once each)                 (Play into Chorus)


Chorus - Both Guitars
|---------------------------------|
|---------------------------------|
|-6-----4-----------6-------------|
|-6-----4-----4-----6-------------|
|-4-----2-----4-----4-------------|
|-------------2-------------------|
[Play chorus twice]




End of Chorus - Guitar 2
|----------------------------------------------------------|
|----------------------------------------------------------|
|-44434443444346-66646664666468-9998999894/8-8\6--66/8-8\4-|
|----------------------------------------------------------|
|----------------------------------------------------------|
|----------------------------------------------------------|


Bridge - Both Guitars
|---------------------------------|
|---------------------------------|
|-4-----------------------4-------|
|-4-----4-----2-----4-----4-------|
|-2-----4-----2-----4-----2-------|
|-------2-----0-----2-------------|




Verse 2 - Both Guitars - Palm Muted
|---------------------------------|
|-4-------------------------------|
|-4-----------------------4-------|
|-4-----4-----2-----4-----4-------|
|-2-----4-----2-----4-----2-------|
|-------2-----0-----2-----|-------|
                         [Play loud then STOP]



Chorus - Both Guitars
|---------------------------------|
|---------------------------------|
|-6-----4-----------6-------------|
|-6-----4-----4-----6-------------|
|-4-----2-----4-----4-------------|
|-------------2-------------------|
[Play chorus twice]

"The ones that you love"...
          


Guitar 1
|---------------------------------|
|---------------------------------|
|-4-----------6-------------------|
|-4-----4-----6-------------------|
|-2-----4-----4-------------------|
|-------2-------------------------|

Guitar 2
Does solo
Haven't got it yet

Guitar 1
|---------------------------------|
|---------------------------------|
|-6-----4-----------6-------------|
|-6-----4-----4-----6-------------|
|-4-----2-----4-----4-------------|
|-------------2-------------------|



Ends on this
|---|
|---|
|-6-|
|-6-|
|-4-|
|---|


Key: / = Slide up
     \ = Slide down 
 
Comments