Dropkick Murphys - The Dirty Glass Chords & Tabs

 

The Dirty Glass Chords & Tabs

Dropkick Murphys Chords & Tabs

Version: 1 Type: Tab 0 ratings
1 star 2 stars 3 stars 4 stars 5 stars
comments

The Dirty Glass Tab

   
Tabbed by Josh Renneker 7-24-04
Standard tuning ----- Three Chords throughout whole song.
- D G A -
listen to song for strumming pattern.
95% correct... enjoy!


Intro     *clean*
   D                                 A            D
E--2-22-22-222-x-x-x-2--222--x-x-x-x--------------2-----|
B--3-33-33-333-3-3-3-3--333--3-3-3-3--------------3-----|
G--2-22-02-220-4-2-0-2--220--4-2-0-2--------------2-----|
D--0-00-00-000-0-0-0-0--000--0-0-0-0-4-0-2-4-2p0--0-----|
A------------------------------------0-0-0-0-0----------|
E-------------------------------------------------------|

"Murphy Murphy..."     *clean*
   D                                 A          A 
E--2-22-22-222-x-x-x-2--222--x-x-x-x-----x------x-xx----|
B--3-33-33-333-3-3-3-3--333--3-3-3-3-----2-22---2-22----|
G--2-22-02-220-4-2-0-2--220--4-2-0-2-----2-22---2-22----|
D--0-00-00-000-0-0-0-0--000--0-0-0-0-4-0-2-22h4p2-22----|
A------------------------------------0-0-0-00---0-00----|
E-------------------------------------------------------|

"Your pain was my pleasure..."     *clean*
   D                                 A            D
E--2-22-22-222-x-x-x-2--222--x-x-x-x--------------2-----|
B--3-33-33-333-3-3-3-3--333--3-3-3-3--------------3-----|
G--2-22-02-220-4-2-0-2--220--4-2-0-2--------------2-----|
D--0-00-00-000-0-0-0-0--000--0-0-0-0-4-0-2-4-2p0--0-----|
A------------------------------------0-0-0-0-0----------|
E-------------------------------------------------------|
[ Tab from: http://www.guitartabs.cc/tabs/d/dropkick_murphys/the_dirty_glass_tab.html ]
*Chorus*
Very Fast *Distortion*
   D    G    D    A     D    G    A    D
E--2----3----2----0-----2----3----0----2----------------|
B--3-7x-3-7x-3-7x-2-7x--3-7x-3-7x-2-7x-3-7x-------------|
G--2----0----2----2-----2----0----2----2----------------|
D--0----0----0----2-----0----0----2----0----------------|
A-----------------0---------------0---------------------|
E-------------------------------------------------------|

*Verse*
Very Fast *Clean*
   D    G    D    A     D    G    A    D
E--2----3----2----0-----2----3----0----2----------------|
B--3-7x-3-7x-3-7x-2-7x--3-7x-3-7x-2-7x-3-7x-------------|
G--2----0----2----2-----2----0----2----2----------------|
D--0----0----0----2-----0----0----2----0----------------|
A-----------------0---------------0---------------------|
E-------------------------------------------------------|

*Interlude or solo part*
*Distortion*

E--22-2~---------------x--2x----------|
B--33-3~---2/4-2-0-2---2~-2x----------|
G--22-2~-------------4-2~-2x-10x------| Play three times
D--00-0~---------------2~-2x----------|
A----------------------0~-0x----------|
E-------------------------------------|

End on... *clean*
   D            A                     D            
E--2-22-22-222--x-x-x-x--------------2-----|
B--3-33-33-333--3-3-3-3--------------3-----|
G--2-22-02-220--4-2-0-2--------------2-----|
D--0-00-00-000--0-0-0-0-4-0-2-4-2p0--0-----|
A------------------------------------0-----|
E------------------------------------------|


Intro     (Clean)
Chorus    (Distortion)
Verse     (Clean)
Chorus    (Distortion)
Verse     (Clean)
Chorus    (Distortion)
Verse     (Clean)
Chorus    (Distortion)
Interlude (Distortion)
Chorus    (Distortion)
Comments