Dropkick Murphys - Sunshine Highway Chords & Tabs

 

Sunshine Highway Chords & Tabs

Dropkick Murphys Chords & Tabs

Version: 2 Type: Tab 0 ratings
1 star 2 stars 3 stars 4 stars 5 stars
comments

Sunshine Highway Tab

-------------------------------------------------------------------------------
			Sunshine Highway –Dropkick Murphys
-------------------------------------------------------------------------------
Tabbed by: Scott	
Email: ss-freed@wiu.edu

I love this song…I saw Dropkick at Warped Tour and they rock.  Here is the solo
for Sunshine Highway..it’s fun to play.

Tuning: Standard EADGBe

A light distortion should probably be used throughout
[ Tab from: http://www.guitartabs.cc/tabs/d/dropkick_murphys/sunshine_highway_tab_ver_2.html ]
e|---------------------------------------------------------------------------|
B|---------------------------------------------------------------------------|
G|---------------------------------------------------------------------------|
D|------8b—8b-8b-8b-8b8--6-----6-------6--------6-------8b-8--6--------------|
A|--------------------------8-----6h8------6h8-----6h8-------------8p6-------|
E|---------------------------------------------------------------------------|

e|-----------------------------------------------------11------9-------------|
B|-------------------------------9-----------11------------------------------|
G|----------8--------------8h10-------8h10-------8h10-----8h10------8h10-----|
D|--------8b—r8-6-----6------------------------------------------------------|
A|-----------------8---------------------------------------------------------|
E|---------------------------------------------------------------------------|
Comments