Dropkick Murphys - Spicy Mchaggis Jig Chords & Tabs

 

Spicy Mchaggis Jig Chords & Tabs

Dropkick Murphys Chords & Tabs

Version: 3 Type: Tab 0 ratings
1 star 2 stars 3 stars 4 stars 5 stars
comments

Spicy Mchaggis Jig Tab

Artist - Dropkick Murphy's
Song - The Spicy McHaggis Jig
Album - Sing Loud, Sing Proud
tabbed by - kellen eritano
Date -May, 21 2005

This is the entire song including the bagpipe part transcribed for guitar.
I was sick of not being able to find the bagpipes anywhere so i did it myself.
The rest of the tab was by Luke Ellis and is prefect as far as i can tell i just
added the bagpipe intro

*THE BAGPIPE PART*

e-0---0-0-0---2-2-2-5-2---0-0-0----------|
A--3-2-----2-3---------3-2-----2-3-0-0-0-|
D-----------2-------------------2--------|
G----------------------------------------|
B----------------------------------------|
E----------------------------------------|

e-0---0-0-0---2-2-2-5-2---0-------------|
A--3-2-----2-3---------3-2-2------------|
D-----------2---------------0-4-2-2-----|
G---------------------------------------|
B---------------------------------------|
E---------------------------------------|

guitar for intro
e-----------------------------------------|
B-----------------------------------------|
G------------------------------10-8-------|
D--6/8~---6/8~---6/8~---6/8~---10-8-8-----|
A--6/8~---6/8~---6/8~---6/8----8--6-8-----|
E--4/6~---4/6~---4/6~---4/6~--------6-----|


Verse: X2
Palm mute the whole of the verse listen to the song to
get the rhythem of the verse and palm muteing
[ Tab from: http://www.guitartabs.cc/tabs/d/dropkick_murphys/spicy_mchaggis_jig_tab_ver_3.html ]
e-------------------------------------|
B-------------------------------------|
G-------------888---------88-6--------|
D-888-666-888-888-888-666-88-6-88-----|
A-888-666-888-666-888-666-66-4-88-----|
E-666-444-666-----666-444------66-----|

Chorus: X2

e------------------------------------------------|
B------------------------------------------------|
G-----8888-----10101010----888810101010----------|
D-888888888888-101010108888888810101010-8888-----|
A-888866668888-8-8-8-8-88886666-8-8-8-8-8888-----|
E-6666----6666---------6666-------------6666-----|

Verse: X2
Palm mute the whole of the verse listen to the song to
get the rhythem of the verse and palm muteing

e-------------------------------------|
B-------------------------------------|
G-------------888---------88-6--------|
D-888-666-888-888-888-666-88-6-88-----|
A-888-666-888-666-888-666-66-4-88-----|
E-666-444-666-----666-444------66-----|

Chorus: X2

e------------------------------------------------|
B------------------------------------------------|
G-----8888-----10101010----888810101010----------|
D-888888888888-101010108888888810101010-8888-----|
A-888866668888-8-8-8-8-88886666-8-8-8-8-8888-----|
E-6666----6666---------6666-------------6666-----|

Interlude
the boyz shout SPICY!! SPICY! SPICY!

e---------------------------|
B---------------------------|
G----------------10-8-------|
D--6/8~---6/8~---10-8-8-----|
A--6/8~---6/8~---8--6-8-----|
E--4/6~---4/6~--------6-----|

Chorus: Play this until the end

e------------------------------------------------|
B------------------------------------------------|
G-----8888-----10101010----888810101010----------|
D-888888888888-101010108888888810101010-8888-----|
A-888866668888-8-8-8-8-88886666-8-8-8-8-8888-----|
E-6666----6666---------6666-------------6666-----|
Comments