Dropkick Murphys - Spicy Mchaggis Jig Chords & Tabs

 

Spicy Mchaggis Jig Chords & Tabs

Dropkick Murphys Chords & Tabs

Version: 2 Type: Bass Tab 0 ratings
1 star 2 stars 3 stars 4 stars 5 stars
comments

Spicy Mchaggis Jig Bass Tab

Dropkick Murphys
The Spicy Mchaggis Jig
Bass tab
tabbed by Draugrist 2003

the last guy who did this did it out of key
obviously, u should listen to the song to get the timing & tempo right
tuning is standard
wait until the bagpipe "riff" is over
[ Tab from: http://www.guitartabs.cc/tabs/d/dropkick_murphys/spicy_mchaggis_jig_btab_ver_2.html ]
"ill tell you a story..."
G 	(------------------------------------------------------------------)
D 	(------------------------------------------------------------------)
A  	(-------------------------------------------------------------7-5--)
E	(5h7----------------5h7--------5h7--------5h7--------5h7--------7--)
"Spicy was big, burly and strong, his pipes were gigantic and so was his..."
G	(------------------------------------------------------------)
D	(------------------------------------------------------------)
A	(---------------7--------7-5------------------7---------7-5--)
E	(7-7-7-5-7-7-7-7-7-7-5----7--7-7-7-5-7-7-7-7-7-7-5------7----)
"One night in a pub, a girl caught his eye..."
G	(----------------------------------------------------------------------------------)
D	(----------------------------------------------------------------------------------) play 2x
A	(-------------7-7-7-7-7-7---------------9-9-9-9-9-9-------------7-7-7-7-7-7-9-7----)
E	(7-7-7-7-7-7--------------7-7-7-7-7-7--------------7-7-7-7-7-7------------------9-7)
"They got to her house, they dimmed all the lights..."
G 	(---------------------------------------------------------)
D 	(---------------------------------------------------------)
A	(---------------7--------7-5------------------7-----------)
E	(7-7-7-5-7-7-7-7-7-7-5----7--7-7-7-5-7-7-7-7-7-7-5-7------)
"By now he saw double through his drunken eyes..."
G	(----------------------------------------------------------------------------------)
D	(----------------------------------------------------------------------------------) play 2x
A	(-------------7-7-7-7-7-7---------------9-9-9-9-9-9-------------7-7-7-7-7-7-9-7----)
E	(7-7-7-7-7-7--------------7-7-7-7-7-7--------------7-7-7-7-7-7------------------9-7)
"SPICY, SPICY, SPICY..."
G	(------------------------)
D	(------------------------)
A	(-------------------9-7--)
E	(5h7--------5h7--------7-)

G	(----------------------------------------------------------------------------------)
D	(----------------------------------------------------------------------------------)
A	(-------------7-7-7-7-7-7---------------9-9-9-9-9-9-------------7-7-7-7-7-7-9-7----)
E	(7-7-7-7-7-7--------------7-7-7-7-7-7--------------7-7-7-7-7-7------------------9-7)
"One night in a pub, a girl caught his eye..."
G	(----------------------------------------------------------------------------------)
D	(----------------------------------------------------------------------------------)
A	(-------------7-7-7-7-7-7-------------9-9-9-9-9-9--------------7-7-7-7-7-7-9-7-----)
E	(7-7-7-7-7-7-------------7-7-7-7-7-7--------------7-7-7-7-7-7------------------9-7-)
"Three packs a day, he'll smoke til' he dies..."
G	(------------------------------)
D	(------------------------------)
A	(------7-------9------7--------)
E	(7-7-7--7-7-7--7-7-7--7----7---)
Comments